P O D - School Of Hard Knocks Chords & Tabs

 

School Of Hard Knocks Chords & Tabs

P O D Chords & Tabs

Version: 1 Type: Tab 0 ratings
1 star 2 stars 3 stars 4 stars 5 stars
comments

School Of Hard Knocks Tab

   
Song: School of Hard Knocks
Artist: P.O.D. (Guitar: Marcos Curiel)
Tabbed by: Crusher (ChristophVIPER@aol.com)

Dropped C Tuning (CGCFAD)

Riff 1:
d|------------------------------|
a|-----8-------5h7---5--3-------|
f|-5-------5---------------4----|
C|------------------------------|
G|------------------------------|
C|------------------------------|

There are too many effects in the intro to tab that part, but it must be something like that.
[ Tab from: http://www.guitartabs.cc/tabs/p/p_o_d/school_of_hard_knocks_tab.html ]
Riff 2: (Distortion):
d|----------------------------------------------------------------------------|
a|----------------------------------------------------------------------------|
f|-------------------5-5-5--------------------7-7-7---------------------------|
C|-2-2-2-2--2-2-2-2--5-5-5--5-5-5-5--5-5-5-5--7-7-7--7-7-7-7--7-7-7-7--7-7-7--|
G|-2-2-2-2--2-2-2-2--3-3-3--5-5-5-5--5-5-5-5--5-5-5--7-7-7-7--7-7-7-7--7-7-7--|
C|-2-2-2-2--2-2-2-2---------5-5-5-5--5-5-5-5---------7-7-7-7--7-7-7-7--7-7-7--|

d|-----------------|
a|-----------------|
f|-----------------|
C|-7-7-7-7--7-7-7--|
G|-7-7-7-7--7-7-7--|
C|-7-7-7-7--7-7-7--|

Riff 3: (really light distorted, I always play it clean):
d|-------------------------------------3~~~~~--------------------|
a|------------------7--7-/2--------------0~~---------3--3h5--5---|
f|-------9~~~-7--9------------------5~~~~~~~~------5-------------|
C|----9~~9~~~--------------------5~~5~~~~~~~~---5~~5-------------|
G|-7~~~~~~~~~-----------------3~~~~~~--------0~~~~~~-------------|
C|---------------------------------------------------------------|

Riff 4:
d|-----------------|
a|-----------------|
f|-----------------|
C|-2-2-2----2-2-2--|
G|-2-2-2----2-2-2--|
C|-2-2-2----2-2-2--|

Riff 5:
d|----------------12*--|
a|-------7*-------12*--|
f|-------7*------------|
C|---------------------|
G|---------------------|
C
Comments