P O D - Rock The Party Chords & Tabs

 

Rock The Party Chords & Tabs

P O D Chords & Tabs

Version: 3 Type: Tab 0 ratings
1 star 2 stars 3 stars 4 stars 5 stars
comments

Rock The Party Tab

   
(dropped D tuning)

Intro/verse:
e-----------------------------
b-----------------------------
g-----------------------------
d-0-0-0-0-0-0-0-0-7-7-7-3-3-3-3
a-0-0-0-0-0-0-0-0-7-7-7-3-3-3-3
d-0-0-0-0-0-0-0-0-7-7-7-3-3-3-3
[ Tab from: http://www.guitartabs.cc/tabs/p/p_o_d/rock_the_party_tab_ver_3.html ]
Chorus
e------------------------------------
b---------------------------------------
g-7-7-7-7-7-7-7-7-14-14-14-10-10-10-10-
d----------------------------------------
a-5-5-5-5-5-5-5-5-12-12-12- 8 - 8 - 8 -8-  
d----------------------------------------

solo (rhythm behind dj)
e-----------------------------------------
b-----------------------------------------
g-5-5-5-5-5-5-5-5-7-8- 5-5-5-5-5-5-5-5-4-3
d-----------------------------------------
a-7-7-7-7-7-7-7-7-9-10-7-7-7-7-7-7-7-7-6-5
d------------------------------------------

(verse,chorus,verse,chorus,solo,verse,chorus)
Comments