P O D - Rock The Party Chords & Tabs

 

Rock The Party Chords & Tabs

P O D Chords & Tabs

Version: 1 Type: Tab 0 ratings
1 star 2 stars 3 stars 4 stars 5 stars
comments

Rock The Party Tab

   
Song: rock the party (off the hook)
Artist: P.O.D.
By: Joey Rotella
Tuning: Drop D (D a D g b e)
If you have any problems with these tabs please email me at pimp_action@hotmail.com but i am 100% sure that these are right.
[ Tab from: http://www.guitartabs.cc/tabs/p/p_o_d/rock_the_party_tab.html ]
main riff
----------------------------------
----------------------------------
----------------------------------
-0-0-0-0-0-0-0-0-2-2-2-3-3-3-3-3--
-0-0-0-0-0-0-0-0-0-0-0-3-3-3-3-3--
-0-0-0-0-0-0-0-0-------3-3-3-3-3--
   * * * * * * *   * *   * * * *

chorus(strum)
-----------------------
-----------------------
-7-------14---10-------
-----------------------
-5-------12---8--------
-----------------------

thats it its as simple as that. ill have more tabs coming of different artists later on this month hopefully. laters guys and have fun.
Comments