P O D - Rock The Party Off The Hook Chords & Tabs

 

Rock The Party Off The Hook Chords & Tabs

P O D Chords & Tabs

Version: 3 Type: Tab 0 ratings
1 star 2 stars 3 stars 4 stars 5 stars
comments

Rock The Party Off The Hook Tab

   
Dropped D tuning 

Intro & Verse: (Marcos has a Tremlo\\Delay effect on. 
E----------------------------------------- 
B----------------------------------------- 
G----------------------------------------- 
D-0-0-0-0-0-0-0-0-7-7-7-3-3-3-3-3--------- 
A-0-0-0-0-0-0-0-0-7-7-7-3-3-3-3-3--------- 
E-0-0-0-0-0-0-0-0-7-7-7-3-3-3-3-3--------- 
[ Tab from: http://www.guitartabs.cc/tabs/p/p_o_d/rock_the_party_off_the_hook_tab_ver_3.html ]
Chorus: (The chorus has the verse guitar behind it. But here\'s the lead.) 
E----------------------------------------------------- 
B----------------------------------------------------- 
G-7-7-7-7-7-7-7-7-14-14-14-10-10-10-10-10- 
D----------------------------------------------------- 
A-5-5-5-5-5-5-5-5-12-12-12- 8- 8- 8- 8- 8- 
E----------------------------------------------------- 


Solo: Here\'s the rhythm guitar behind the solo.  
(Marcos is using an effect that I can\'t figure out so 
I can\'t figure out what the solo is.)
E--------------------------- 
B--------------------------- 
G-7-x-x-7-7-7-7--------- 
D-------------------3h5--- 
A-5-x-x-5-5-5-5------5- 
E--------------------------- 

ANY QUESTIONS E-MAIL ME AT ORANGEMONK123@AOL.COM   
Comments