P O D - Rock The Party Off The Hook Chords & Tabs

 

Rock The Party Off The Hook Chords & Tabs

P O D Chords & Tabs

Version: 1 Type: Tab 0 ratings
1 star 2 stars 3 stars 4 stars 5 stars
comments

Rock The Party Off The Hook Tab

   
Rock The Party (Off The Hook)
P. O. D.
Tabbed By Aaron Bridgeman (rokken@sicness.net)

http://bogans.arecool.net

KEY:
h = hammer on
x = dead note

TUNING - DROP D (D A D G B e)

INTRO / VERSE:
e|---------------------------------|
B|---------------------------------|
G|-----------------2-2-2-----------|
D|-0-0-0-0-0-0-0-0-2-2-2-3-3-3-3-3-|
A|-0-0-0-0-0-0-0-0-0-0-0-3-3-3-3-3-|
D|-0-0-0-0-0-0-0-0-------3-3-3-3-3-|
[ Tab from: http://www.guitartabs.cc/tabs/p/p_o_d/rock_the_party_off_the_hook_tab.html ]
FILL:
e|-----------------------------------|
B|-----------------------------------|
G|-----------------------------------|
D|-0-0-0-0-0-0-0-0-0-0-0-0-0-0-0-0-0-|
A|-0-0-0-0-0-0-0-0-0-0-0-0-0-0-0-0-0-|
D|-0-0-0-0-0-0-0-0-0-0-0-0-0-0-0-0-0-|

The two riffs above have a drop in volume, which means Marcos achieved this by:
A) Playing the notes softer as he went.
B) Used Delay. Plenty of it.
C) Added it in the studio.
D) Did something that hasn't occured to me.

CHORUS:
e|--------------------------------------------------------->
B|--------------------------------------------------------->
G|-7-7-7-7-7-7-7-7-7-7-7-7-7-7-7-7-14-14-14-14-14-14-14-14->
D|-x-x-x-x-x-x-x-x-x-x-x-x-x-x-x-x-xx-xx-xx-xx-xx-xx-xx-xx->
A|-5-5-5-5-5-5-5-5-5-5-5-5-5-5-5-5-12-12-12-12-12-12-12-12->
D|--------------------------------------------------------->

Comments