P O D - Outkast Chords & Tabs

 

Outkast Chords & Tabs

P O D Chords & Tabs

Version: 1 Type: Tab 0 ratings
1 star 2 stars 3 stars 4 stars 5 stars
comments

Outkast Tab

   
Outkast
P. O. D.
Tabbed By Aaron Bridgeman (rokken@sicness.net)

http://bogans.arecool.net

TUNING: Drop D (D A D G B e)

KEY:
~   = vibrato
p   = pull-off
pm. = palm mute

INTRO CLEAN:
e|---------------------|
B|---------------------|
G|---------------------|
D|---------------------|
A|---------5---8---3---|
D|-0---0---------------|
[ Tab from: http://www.guitartabs.cc/tabs/p/p_o_d/outkast_tab.html ]
CHORUS DIST:
e|--------------------------------------------------------------------|
B|--------------------------------------------------------------------|
G|---------------------------------7-7-7-10-10-10-5-5-5-5-5-5-5-5-5-5-|
D|-0-0-0-0-0-0-0-0-0-0-0-0-0-0-0-0-x-x-x-x--x--x--x-x-x-x-x-x-x-x-x-x-|
A|-0-0-0-0-0-0-0-0-0-0-0-0-0-0-0-0-5-5-5-8--8--8--3-3-3-3-3-3-3-3-3-3-|
D|-0-0-0-0-0-0-0-0-0-0-0-0-0-0-0-0------------------------------------|

VERSE:
e|-----------------------------------------------|
B|-----------------------------------------------|
G|-----------------------------------------------|
D|---6~---6~---6~---6~---6~---6~--9-9-9-9-10-9---|
A|---------------------------------------------8-|
D|-0----0----0----0----0----0--------------------|

"BROTHER TAKE MY HAND" PART:
e|-----------------------|
B|-----------------------|
G|-----------------------|
D|-----------------------|
A|-0----3p2-3p2--0--1----|
D|-0----3p2-3p2--0--1----|


"BROTHER TAKE MY HAND" PART 2:
e|-----------------------|
B|-----------------------|
G|-----------------------|
D|-----------------------|
A|-0----3p2-3p2--0--1----|
D|-0----3p2-3p2--0--1----|
pm      . . . .  .  .

That's it!
Comments