Ozzy Osbourne - You Lookin At Me Lookin At You Chords & Tabs

 

You Lookin At Me Lookin At You Chords & Tabs

Ozzy Osbourne Chords & Tabs

Version: 1 Type: Tab 0 ratings
1 star 2 stars 3 stars 4 stars 5 stars
comments

You Lookin At Me Lookin At You Tab

   
                        YOU LOOKIN' AT ME LOOKIN' AT YOU
                          As recorded by Ozzy Osbourne
                         On Blizzard Of Ozz Bonus Track

Words and Music by Ozzy Osbourne, Randy Rhoads and Bob Daisley
Transcribed by Steve Rolbiecki

Gtr I (E A D G B E) - 'Rhythm'
Gtr II (E A D G B E) - 'Lead'
Gtr III (E A D G B E) - 'Pick Scrape'

 Intro
  Q=128
  E5             A5           B5   C#B5C#5       E5/F#F#sus4
 4/4
  Gtr I
  Q.   +Q    E E E   +H.      Q    E E H    Q    Q.   E Q  +Q
|------------------|-------------|-------------|------------------|
|------------------|-------------|-------------|-5----------------|
|-9----(9)-------2-|-(2)------4--|-6-4-6----6--|-4----4-4--(4)\---|
|-9----(9)\------2-|-(2)------4--|-6-4-6----6--|-4----4-4--(4)\---|
|-7----(7)\--2-4-0-|-(0)------2--|-4-2-4----4--|------------------|
|------------------|-------------|-------------|------------------|


  D5      N.C.                 F#5
                              4/4
                                 PM|   PM|   PM|   PM|
                 |-3-| |-3-|   |-3-| |-3-| |-3-| |-3-|
  H    E. E. E   Q Q Q Q Q Q   E E E E E E E E E E E E
|--------------|-------------|-------------------------|
|--------------|-------------|-------------------------|
|-7----7-------|-------------|-------------------------|
|-7----7-------|-------------|-4-----4-----4-----4-----|
|-5----5--4--2-|-4-2-0-2-0---|-4-----4-----4-----4-----|
|--------------|-----------4-|-2-2-2-2-2-2-2-2-2-2-2-2-|


              Bsus4   B5                                    A5 E5
    PM|   PM|           PM|   PM|   PM|   PM|     PM|   PM|
  |-3-| |-3-|         |-3-| |-3-| |-3-| |-3-|   |-3-| |-3-|
  E E E E E E Q  Q    E E E E E E E E E E E E   E E E E E E Q  Q
|-------------------|-------------------------|-------------------|
|-------------5--5--|-------------------------|-------------------|
|-------------4--4--|-4-----4-----4-----4-----|-4-----4-----2-----|
|-4-----4-----2--2--|-4-----4-----4-----4-----|-4-----4-----2--2--|
|-4-----4-----2--2--|-2-2-2-2-2-2-2-2-2-2-2-2-|-2-2-2-2-2-2-0--2--|
|-2-2-2-2-2-2-------|-------------------------|----------------0--|


  F#5                                                       Bsus4
        PM|   PM|   PM|       PM------|           PM|   PM|
   |--3---| |-3-| |-3-|  |-----3------|        |-3--| |-3-|
   E    E E E E E E E E  E    E       E        E  E E E E E   Q       Q
|------------------------------------------|-------------------------------|
|------------------------------------------|------------------5-------5----|
|------------------------------------------|------------------4-------4----|
|--4--------4-----4------4-----------------|---4------4-------2-------2----|
|--4--------4-----4------4-----------------|---4------4-------2-------2----|
|--2----2-2-2-2-2-2-2-2--2----2-------2----|---2--2-2-2-2-2----------------|
|
| Gtr II
|                                              ~~~~
|                        |-------5-------|
|  H.                    S  S    S  S    S    +H             +E    E  E  E
|-16b18-----------------14h16p==14-16p==14-|-(14)-----------(14)-/14-16-14-|
|------------------------------------------|-------------------------------|
|------------------------------------------|-------------------------------|
|------------------------------------------|-------------------------------|
|------------------------------------------|-------------------------------|
|------------------------------------------|-------------------------------|


  B5                                               A5       E5
        PM|   PM|   PM|     PM|          PM|   PM|
   |--3---| |-3-| |-3-|  |--3--|    |--3---| |-3-|
   E    E E E E E E E E  E  E  E    E    E E E E E   Q        Q
|--------------------------------|-----------------------------------||
|--------------------------------|-----------------------------------||
|--4--------4-----4------4-------|--4--------4-------2---------------||
|--4--------4-----4------4-------|--4--------4-------2--------2------||
|--2----2-2-2-2-2-2-2-2--2--2--2-|--2----2-2-2-2-2---0--------2------||
|--------------------------------|----------------------------0------||
|
|                        |--3--|
|  H.                    E  E  E    H               +Q       +Q
|-16b18-----------------14-16-17-|-19b21-----------(19)b21--(19)\----||
|--------------------------------|-----------------------------------||
|--------------------------------|-----------------------------------||
|--------------------------------|-----------------------------------||
|--------------------------------|-----------------------------------||
|--------------------------------|-----------------------------------||


 Verse 1
  F#5                                   Bsus4
    PM|   PM|   PM|   PM|     PM|   PM|
  |-3-| |-3-| |-3-| |-3-|   |-3-| |-3-|
  E E E E E E E E E E E E   E E E E E E Q  Q
|-------------------------|-------------------|
|-------------------------|-------------5--5--|
|-------------------------|-------------4--4--|
|-4-----4-----4-----4-----|-4-----4-----2--2--|
|-4-----4-----4-----4-----|-4-----4-----2--2--|
|-2-2-2-2-2-2-2-2-2-2-2-2-|-2-2-2-2-2-2-------|


  B5                                    A5 E5
    PM|   PM|   PM|   PM|     PM|   PM|
  |-3-| |-3-| |-3-| |-3-|   |-3-| |-3-|
  E E E E E E E E E E E E   E E E E E E Q  Q
|-------------------------|---------------------|
|-------------------------|---------------------|
|-4-----4-----4-----4-----|-4-----4-----2-------|
|-4-----4-----4-----4-----|-4-----4-----2--2----|
|-2-2-2-2-2-2-2-2-2-2-2-2-|-2-2-2-2-2-2-0--2----|
|-------------------------|----------------0----|


  F#5   D5 F#5         F#5   D5 Bsus4
    PM|      PM|         PM|
  |-3-|    |-3-|       |-3-|
  E E E Q  E E E E E   E E E Q  Q  Q
|-------5------------|-------5--------|
|-------3------------|-------3--5--5--|
|----------------4-2-|----------4--4--|
|-4--------4-----4-2-|-4--------2--2--|
|-4--------4---------|-4--------2--2--|
|-2-2-2----2-2-2-----|-2-2-2----------|


  B5                                    A5 E5
    PM|   PM|   PM|   PM|     PM|   PM|
  |-3-| |-3-| |-3-| |-3-|   |-3-| |-3-|
  E E E E E E E E E E E E   E E E E E E Q  Q
|-------------------------|--------------------||
|-------------------------|--------------------||
|-4-----4-----4-----4-----|-4-----4-----2------||
|-4-----4-----4-----4-----|-4-----4-----2--2---||
|-2-2-2-2-2-2-2-2-2-2-2-2-|-2-2-2-2-2-2-0--2---||
|-------------------------|----------------0---||


 Pre Chorus
  G#m                A                 F#m                E5/F#F#sus4
  E E E Q  E +E  E   E E E Q  Q  +E    E E E Q  E +E  E   Q.   E Q  +Q
|-------4--6-(6)-7-|-----------------|-------2--4-(4)-2-|------------------||
|-----4------------|-------5---------|-----2------------|-5----------------||
|---4--------------|-----6----6--(6)-|---2--------------|-4----4-4--(4)\---||
|-6----------------|-7-7-------------|-4----------------|-4----4-4--(4)\---||
|------------------|-----------------|------------------|------------------||
|------------------|-----------------|------------------|------------------||


   Chorus
    E5             A5           B5   C#B5C#5       E5/F#F#sus4
    Q.   +Q    E E E   +H.      Q    E E H    Q    Q.   E Q  +Q
||-------------------|-------------|-------------|------------------||
||o------------------|-------------|-------------|-5---------------o||
||--9----(9)-------2-|-(2)------4--|-6-4-6----6--|-4----4-4--(4)\---||
||--9----(9)\------2-|-(2)------4--|-6-4-6----6--|-4----4-4--(4)\---||
||o-7----(7)\--2-4-0-|-(0)------2--|-4-2-4----4--|-----------------o||
||-------------------|-------------|-------------|------------------||


  D5      N.C.                 F#5
                                 PM|   PM|   PM|   PM|
                 |-3-| |-3-|   |-3-| |-3-| |-3-| |-3-|
  H    E. E. E   Q Q Q Q Q Q   E E E E E E E E E E E E
|--------------|-------------|-------------------------|
|--------------|-------------|-------------------------|
|-7----7-------|-------------|-------------------------|
|-7----7-------|-------------|-4-----4-----4-----4-----|
|-5----5--4--2-|-4-2-0-2-0---|-4-----4-----4-----4-----|
|--------------|-----------4-|-2-2-2-2-2-2-2-2-2-2-2-2-|


              Bsus4   B5                                        A5 E5
    PM|   PM|           PM|   PM|   PM|   PM------------------|
  |-3-| |-3-|         |-3-| |-3-| |-3-| |-3-|
  E E E E E E Q  Q    E E E E E E E E E E E E   S S S S S S S S Q  Q
|-------------------|-------------------------|-----------------------||
|-------------5--5--|-------------------------|-----------------------||
|-------------4--4--|-4-----4-----4-----4-----|-----------------------||
|-4-----4-----2--2--|-4-----4-----4-----4-----|-----------------2-----||
|-4-----4-----2--2--|-2-2-2-2-2-2-2-2-2-2-2-2-|-2-2-2-2-2-2-2-2-0--2--||
|-2-2-2-2-2-2-------|-------------------------|--------------------0--||


 Break
  F#5
        PM---|          PM---|          PM---|          PM---|
   |----3----|     |----3----|     |----3----|     |----3----|
   E    E    E     E    E    E     E    E    E     E    E    E
|-----------------------------------------------------------------|
|-----------------------------------------------------------------|
|-----------------------------------------------------------------|
|--4---------------4---------------4---------------4--------------|
|--4---------------4---------------4---------------4--------------|
|--2----2----2-----2----2----2-----2----2----2-----2----2----2----|
|
| Gtr II
|  S  S    S    S  S  S    S    S  S  S    S    S  S  S    S    S
|-14-17---14------14----------------------------------------------|
|--------------17----17---14------14------------------------------|
|------------------------------16----16---14------14--------------|
|----------------------------------------------16----16---14------|
|--------------------------------------------------------------16-|
|-----------------------------------------------------------------|


                                  Bsus4
        PM---|          PM---|
   |----3----|     |----3----|
   E    E    E     E    E    E     Q         Q
|------------------------------------------------------|
|----------------------------------5---------5---------|
|----------------------------------4---------4---------|
|--4---------------4---------------2---------2---------|
|--4---------------4---------------2---------2---------|
|--2----2----2-----2----2----2-------------------------|
|
|  S  S    S    S  S  S    S    S  S  E  +E     E  S
|-------------------------------------------------17---|
|---------------------------------14-17-(17)S==19------|
|-------------------------14---16----------------------|
|-----------------14-16--------------------------------|
|---------14---16--------------------------------------|
|-14-16------------------------------------------------|


  B5                                                           A5 E5
        PM|   PM|      PM--------|    PM---|         PM|   PM|
   |--3---| |-3-|   |-----3------|  |--3---|    |--3---| |-3-|
   E    E E E E E   E  E         E  E E    E    E    E E E E E Q  Q
|--------------------------------------------|-----------------------||
|--------------------------------------------|-----------------------||
|--4--------4-------4---------------4--------|--4--------4-----2-----||
|--4--------4-------4---------------4--------|--4--------4-----2--2--||
|--2----2-2-2-2-2---2--2---------2--2-2----2-|--2----2-2-2-2-2-0--2--||
|--------------------------------------------|--------------------0--||
|
|  ~~~~~                                        ~~~~~
|  H               +E     +E        E    E      W
|-19b21-----------(19)---(19)b21r==19---17---|-19b23-----------------||
|--------------------------------------------|-----------------------||
|--------------------------------------------|-----------------------||
|--------------------------------------------|-----------------------||
|--------------------------------------------|-----------------------||
|--------------------------------------------|-----------------------||


 Verse 2
  F#5                                   Bsus4
    PM|   PM|   PM|   PM|     PM|   PM|
  |-3-| |-3-| |-3-| |-3-|   |-3-| |-3-|
  E E E E E E E E E E E E   E E E E E E Q  Q
|-------------------------|-------------------|
|-------------------------|-------------5--5--|
|-------------------------|-------------4--4--|
|-4-----4-----4-----4-----|-4-----4-----2--2--|
|-4-----4-----4-----4-----|-4-----4-----2--2--|
|-2-2-2-2-2-2-2-2-2-2-2-2-|-2-2-2-2-2-2-------|


  B5                                    A5 E5
    PM|   PM|   PM|   PM|     PM|   PM|
  |-3-| |-3-| |-3-| |-3-|   |-3-| |-3-|
  E E E E E E E E E E E E   E E E E E E Q  Q
|-------------------------|---------------------|
|-------------------------|---------------------|
|-4-----4-----4-----4-----|-4-----4-----2-------|
|-4-----4-----4-----4-----|-4-----4-----2--2----|
|-2-2-2-2-2-2-2-2-2-2-2-2-|-2-2-2-2-2-2-0--2----|
|-------------------------|----------------0----|


  F#5   D5 F#5         F#5   D5 Bsus4
    PM|      PM|         PM|
  |-3-|    |-3-|       |-3-|
  E E E Q  E E E E E   E E E Q  Q  Q
|-------5------------|-------5--------|
|-------3------------|-------3--5--5--|
|----------------2-4-|----------4--4--|
|-4--------4-----2-4-|-4--------2--2--|
|-4--------4---------|-4--------2--2--|
|-2-2-2----2-2-2-----|-2-2-2----------|


  B5                                    A5 E5
    PM|   PM|   PM|   PM|     PM|   PM|
  |-3-| |-3-| |-3-| |-3-|   |-3-| |-3-|
  E E E E E E E E E E E E   E E E E E E Q  Q
|-------------------------|--------------------||
|-------------------------|--------------------||
|-4-----4-----4-----4-----|-4-----4-----2------||
|-4-----4-----4-----4-----|-4-----4-----2--2---||
|-2-2-2-2-2-2-2-2-2-2-2-2-|-2-2-2-2-2-2-0--2---||
|-------------------------|----------------0---||


 Pre Chorus
  G#m                A                 F#m                E5/F#F#sus4
  E E E Q  E +E  E   E E E Q  Q  +E    E E E Q  E +E  E   Q.   E Q  +Q
|-------4--6-(6)-7-|-----------------|-------2--4-(4)-2-|------------------||
|-----4------------|-------5---------|-----2------------|-5----------------||
|---4--------------|-----6----6--(6)-|---2--------------|-4----4-4--(4)\---||
|-6----------------|-7-7-------------|-4----------------|-4----4-4--(4)\---||
|------------------|-----------------|------------------|------------------||
|------------------|-----------------|------------------|------------------||


   Chorus
    E5             A5           B5   C#B5C#5       E5/F#F#sus4
    Q.   +Q    E E E   +H.      Q    E E H    Q    Q.   E Q  +Q
||-------------------|-------------|-------------|------------------||
||o------------------|-------------|-------------|-5---------------o||
||--9----(9)-------2-|-(2)------4--|-6-4-6----6--|-4----4-4--(4)\---||
||--9----(9)\------2-|-(2)------4--|-6-4-6----6--|-4----4-4--(4)\---||
||o-7----(7)\--2-4-0-|-(0)------2--|-4-2-4----4--|-----------------o||
||-------------------|-------------|-------------|------------------||


  A5            E
       |-3-|
  H    Q Q Q    H    E E E E
|-------------|--------------||
|-------------|--------------||
|-2----2------|--------------||
|-2----2------|----------2---||
|-0----0------|------2-4---4-||
|--------4-2--|-0------------||
|
| Gtr II
| W             H    E E E E
|-------------|--------------||
|-------------|--------------||
|-------------|--------------||
|-------------|--------------||
|-------------|----------7---||
|-------------|------7-9---9-||


 Guitar Solo
  E                          B/Eb
  E E E E +E  E   E    E      E    E E  E  +E  E E E
|--------------------------|-------------------------|
|-------9-(9)--------------|------------9--(9)-------|
|-----9-------9------------|---------8---------8-----|
|---9-------------9--------|-------9-------------9---|
|-7--------------------7---|--6--------------------6-|
|--------------------------|-------------------------|
|
|                                           ~~~~
| Q   E E  E  S S S S  S S    Q      E  E  +H
|--------------------------|---------9---------------|
|------------------------9-|-12b14-----12-(12)-------|
|---------------6-8-9-11---|-------------------------|
|-------6--7--9------------|-------------------------|
|-7---9--------------------|-------------------------|
|--------------------------|-------------------------|


  D6
   E     E    E    E   +E     E    E    E
|------------------7---(7)-------------------|
|-----------------------------7--------------|
|-------------7--------------------7---------|
|--------7------------------------------7----|
|--5-----------------------------------------|
|--------------------------------------------|
|
|  S  S  S S  S S  S S  S  S  S  S S  S S  S
|-10h12p10p9h10p9----9-----------------------|
|-----------------12---12p10-12p10-9h10p9----|
|-----------------------------------------11-|
|--------------------------------------------|
|--------------------------------------------|
|--------------------------------------------|


  A/C#                           F#5
   E  E E  E    +E      E  E E   E     E     E     E   +E    E    E     E
|----------9----(9)------------|-------------------9---(9)-------------------|
|-----------------------7------|----------------------------10---------------|
|-------6------------------6---|------------11-------------------11----------|
|-----7----------------------7-|------11-------------------------------11----|
|--4---------------------------|-9-------------------------------------------|
|------------------------------|---------------------------------------------|
|
|  ~~~              ~~~~~~~
|  Q.      S  S  S  S  +Q.       S  S  S  S  S  S  S S  S S  S S  S  S  S S
|------------------------------|-9h10p=9-----9-------------------------------|
|------------------------------|---------12----12p10p9h10p9----9-------------|
|-10------11-10-11S13-(13)-----|----------------------------11---11p10p=9-8--|
|------------------------------|---------------------------------------------|
|------------------------------|---------------------------------------------|
|------------------------------|---------------------------------------------|

[ Tab from: http://www.guitartabs.cc/tabs/o/ozzy_osbourne/you_lookin_at_me_lookin_at_you_tab.html ]
  B7                                 E5
  E   E  E  E    +E   E     E    E    E    E   E       E       +E        E       E E
|----------11---(11)---------------|-------------------------------------------------|
|-------10-----------10------------|-------------------9-------(9)-------------------|
|----11--------------------11------|-----------9-------------------------9-----------|
|-9------------------------------9-|-------9-------------------------------------9---|
|----------------------------------|--7--------------------------------------------7-|
|----------------------------------|-------------------------------------------------|
|
| ~~                  ~~~~~~~~~~~
|                                     |--3---|
| Q.        S S  +E   E     Q        +E  E   E T T T T T T T T  T  T T T T T T T Q
|----------------------------------|-----------0-0-7-0-0-0-7-0--0--0-7-0-0-0-7-0-0---|
|----------------------------------|-----7---0---------------------------------------|
|-8---------8-9--(9)--9b11--9b11---|-(9)---------------------------------------------|
|----------------------------------|-------------------------------------------------|
|----------------------------------|-------------------------------------------------|
|----------------------------------|-------------------------------------------------|


  F#m/B
   E           E           E           E           E  E  E  E
|-------------------------------------------------------------|
|-------------------------10----------------------10----10----|
|-------------11----------------------11-------------11----11-|
|--9----------------------------------------------------------|
|-------------------------------------------------------------|
|-------------------------------------------------------------|
|
|                                                  ~~
|  T  T  T  T  T  T  T  T  T  T  T  T  T  T  T  T  H
|-11h12p11h12p11h12p11h12-11h12p11h12p11h12p11h12-14----------|
|-------------------------------------------------------------|
|-------------------------------------------------------------|
|-------------------------------------------------------------|
|-------------------------------------------------------------|
|-------------------------------------------------------------|


  E
   E        E        E        E       +E        E        E        E
|-------------------------------------------------------------------------|
|-----------------------------9-------(9)---------------------------------|
|--------------------9--------------------------9-------------------------|
|-----------9--------------------------------------------9----------------|
|--7--------------------------------------------------------------7-------|
|-------------------------------------------------------------------------|
|
|  |------6-------|  |------6-------|  |------6-------|  |------6-------|
|  S  S  S  S  S  S  S  S  S  S  S  S  S  S  S  S  S  S  S  S  S  S  S  S
|-16p14p12-16p14p12-16p14p12-16p14p12-16p14p12-16p14p12-16p14p12-16p14p12-|
|-------------------------------------------------------------------------|
|-------------------------------------------------------------------------|
|-------------------------------------------------------------------------|
|-------------------------------------------------------------------------|
|-------------------------------------------------------------------------|


  B/Eb
   E        E        E        E       +E        E        E        E
|-------------------------------------------------------------------------|
|-----------------------------9-------(9)---------------------------------|
|--------------------8--------------------------8-------------------------|
|-----------9--------------------------------------------9----------------|
|--6--------------------------------------------------------------6-------|
|-------------------------------------------------------------------------|
|
|  |------6-------|  |------6-------|  |------6-------|  |------6-------|
|  S  S  S  S  S  S  S  S  S  S  S  S  S  S  S  S  S  S  S  S  S  S  S  S
|-14p12p11-14p12p11-14p12p11-14p12p11-14p12p11-14p12p11-14p12p11-14p12p11-|
|-------------------------------------------------------------------------|
|-------------------------------------------------------------------------|
|-------------------------------------------------------------------------|
|-------------------------------------------------------------------------|
|-------------------------------------------------------------------------|


  D6
   E       E       E       E      +E       E       E       E
|--------------------------7------(7)-----------------------------|
|------------------------------------------7----------------------|
|------------------7-------------------------------7--------------|
|----------7-----------------------------------------------7------|
|--5--------------------------------------------------------------|
|-----------------------------------------------------------------|
|
|  |-----6------|  |-----6------|  |-----6------|  |-----6------|
|  S  S S  S  S S  S  S S  S  S S  S  S S  S  S S  S  S S  S  S S
|-12p10p9---------12p10p9---------12p10p9---------12p10p9---------|
|---------12p10p9---------12p10p9---------12p10p9---------12p10p9-|
|-----------------------------------------------------------------|
|-----------------------------------------------------------------|
|-----------------------------------------------------------------|
|-----------------------------------------------------------------|


  A/C#
   E   E    E   E   +E     E    E  E
|---------------9---(9)--------------|
|--------------------------7---------|
|-----------6-------------------6----|
|------7---------------------------7-|
|--4---------------------------------|
|------------------------------------|
|
|  S S S S  S S S S  S  S  Q       E
|---------------------------------12-|
|-12-9-9-9-12-9-9-9-12--9-14b16------|
|------------------------------------|
|------------------------------------|
|------------------------------------|
|------------------------------------|


  F#5
   E     E     E     E    +E      E     E     E
|--------------------9----(9)----------------------|
|--------------------------------10----------------|
|-------------11-----------------------11----------|
|-------11-----------------------------------11----|
|--9-----------------------------------------------|
|--------------------------------------------------|
|
|  S  S  S  S  S  S  S  S  S   S  S  S  S  S  S  S
|-------------------------11--11-11-11-12-12-12-12-|
|-------------14-14-14-14--------------------------|
|-11-11-11-11--------------------------------------|
|--------------------------------------------------|
|--------------------------------------------------|
|--------------------------------------------------|


     B7
   E     E    E    E     +E     E    E   E
|-----------------11----(11)-------------------|
|------------10----------------10--------------|
|-------11--------------------------11---------|
|--9-------------------------------------9-----|
|----------------------------------------------|
|----------------------------------------------|
|
|  S  S  S S  S S  S  S   S  S  S S  S S S  S
|-11-11-12-9--0-0-11-11--12--9--0-0-14-0-0-12--|
|----------------------------------------------|
|----------------------------------------------|
|----------------------------------------------|
|----------------------------------------------|
|----------------------------------------------|


  E5                                       B5
   E   E    E   E   +E     E  E     E       E     E     E     E     Q   E E
|----------------------------------------|----------------------------------|
|---------------9---(9)------------------|----------------------------------|
|-----------9--------------9-------------|--4-----4-----4-----4-----4-------|
|------9----------------------9----------|--4-----4-----4-----4-----4-------|
|--7--------------------------------7----|--2-----2-----2-----2-----2---2-4-|
|----------------------------------------|----------------------------------|
|
|  S S S S  S S S S  S  S  E  S  S  S  S    S  S  S  S  S  S  S  S  H
|-16-0-0-0-14-0-0-0-19p16----17p16----16-|-16h17p16h17p16h17p16h17-19\------|
|-------------------------17-------17----|----------------------------------|
|----------------------------------------|----------------------------------|
|----------------------------------------|----------------------------------|
|----------------------------------------|----------------------------------|
|----------------------------------------|----------------------------------|


  Bridge
   D5             E5
   Q.   Q.   Q    E E E E E E E E
||--------------|---0-----0-0-----|
||--------------|---0-----0-0-----|
||-7------------|-----------------|
||-7------------|-2---------------|
||-5----4----2--|-2-----------2-4-|
||--------------|-0---0-0---------|
|
|  W              W
||--------------|-----------------|
||--------------|-----------------|
||--------------|-----------------|
||--------------|-----------------|
||--------------|-----------------|
||--------------|-----------------|


  D5             E5               D5             A5     C#m
  Q.   Q.   Q    Q  E E E E E E   Q.   Q.   Q    Q.   E E +E  E E
|--------------|----------------|--------------|-------------------|
|--------------|----------------|--------------|--------5-(5)------|
|-7------------|----4-6-9-7-6-4-|-7------------|-2----7-6-(6)------|
|-7------------|-2--------------|-7------------|-2-----------------|
|-5----4----2--|-2--2-4-7-5-4-2-|-5----4----2--|-0-----------------|
|--------------|-0--------------|--------------|--------------2-4--|


  A5   G#5  F#5
  Q.   Q.   Q
|--------------|
|--------------|
|-2------------|
|-2----6----4--|
|-0----6----4--|
|------4----2--|


  N.C.
  Gtr III
  TPTPTPTPTPTPTPTPTPTPTPTPTPTPTPTPTPTPTPTPTPTPTPTPTPTPTPTPTPTPTPTP
  T T T T T T T T T T T T T T T T T T T T T T T T T T T T T T T T
|------------------------------------------------------------------|
|-xSxSxSxSxSxSxSxSxSxSxSxSxSxSxSxSxSxSxSxSxSxSxSxSxSxSxSxSxSx-x-x--|
|-xSxSxSxSxSxSxSxSxSxSxSxSxSxSxSxSxSxSxSxSxSxSxSxSxSxSxSxSxSx-x-x--|
|------------------------------------------------------------------|
|------------------------------------------------------------------|
|------------------------------------------------------------------|


  F#5                                   Bsus4
  Gtr I
    PM|   PM|   PM|   PM|     PM|   PM|
  |-3-| |-3-| |-3-| |-3-|   |-3-| |-3-|
  E E E E E E E E E E E E   E E E E E E Q  Q
|-------------------------|-------------------|
|-------------------------|-------------5--5--|
|-------------------------|-------------4--4--|
|-4-----4-----4-----4-----|-4-----4-----2--2--|
|-4-----4-----4-----4-----|-4-----4-----2--2--|
|-2-2-2-2-2-2-2-2-2-2-2-2-|-2-2-2-2-2-2-------|


  B5                                    A5 E5
    PM|   PM|   PM|   PM|     PM|   PM|
  |-3-| |-3-| |-3-| |-3-|   |-3-| |-3-|
  E E E E E E E E E E E E   E E E E E E Q  Q
|-------------------------|---------------------||
|-------------------------|---------------------||
|-4-----4-----4-----4-----|-4-----4-----2-------||
|-4-----4-----4-----4-----|-4-----4-----2--2----||
|-2-2-2-2-2-2-2-2-2-2-2-2-|-2-2-2-2-2-2-0--2----||
|-------------------------|----------------0----||


 Break
  F#5
        PM|       PM---|          PM---|          PM--|
   |--3---|  |----3----|    |-----3-----|    |---3----|
   E    E E  E    E    E    E     E     E    E    E   E
|----------------------------------------------------------|
|----------------------------------------------------------|
|----------------------------------------------------------|
|--4---------4--------------4----------------4-------------|
|--4---------4--------------4----------------4-------------|
|--2----2-2--2----2----2----2-----2-----2----2----2---2----|
|
| Gtr II
|  ~~~~~
|            |-----6------| |------6------|  |-3--|
|  Q         S  S S  S S  S S  S  S  S  S S  S S  S S    S
|-12b14-----12-10-9-10-9----9------------------------------|
|------------------------12---12-10-12-10-9-10-9----9------|
|------------------------------------------------11-----11-|
|----------------------------------------------------------|
|----------------------------------------------------------|
|----------------------------------------------------------|


                                  Bsus4
       PM--|           PM---|
  |----3----|    |-----3-----|
  E    E    E    E     E     E      Q       Q
|----------------------------------------------------------|
|-----------------------------------5-------5--------------|
|-----------------------------------4-------4--------------|
|-4--------------4------------------2-------2--------------|
|-4--------------4------------------2-------2--------------|
|-2----2----2----2-----2-----2-----------------------------|
|
| |-3--| |--3--| |--3--|  |--3--|           |--3---|
| S S  S S  S  S S  S  S  S  S  S  +Q       S  S  +S   +E
|----------------9-10-12-14-17-19-(19)b21--17--------------|
|--------9-10-12------------------------------19-(19)-(19)-|
|-8-9-11---------------------------------------------------|
|----------------------------------------------------------|
|----------------------------------------------------------|
|----------------------------------------------------------|


  B5
         PM|   PM|   PM|   PM|
   |---3---| |-3-| |-3-| |-3-|
   E     E E E E E E E E E E E
|------------------------------|
|------------------------------|
|--4---------4-----4-----4-----|
|--4---------4-----4-----4-----|
|--2-----2-2-2-2-2-2-2-2-2-2-2-|
|------------------------------|
|
|  ~~~~~~
|  W
|------------------------------|
|-20b22========================|
|------------------------------|
|------------------------------|
|------------------------------|
|------------------------------|


                            Verse 3
                 A5    E5    F#5
       PM|   PM|               PM|   PM|   PM|   PM|
    |-3--| |-3-|             |-3-| |-3-| |-3-| |-3-|
    E  E E E E E   Q   Q     E E E E E E E E E E E E
|-------------------------||-------------------------|
|-------------------------||-------------------------|
|---4------4-------2------||-------------------------|
|---4------4-------2---2--||-4-----4-----4-----4-----|
|---2--2-2-2-2-2---0---2--||-4-----4-----4-----4-----|
|----------------------0--||-2-2-2-2-2-2-2-2-2-2-2-2-|
|
|  +H             +H         W
|-------------------------||-------------------------|
|-(20)r==========(20)-----||-------------------------|
|-------------------------||-------------------------|
|-------------------------||-------------------------|
|-------------------------||-------------------------|
|-------------------------||-------------------------|


              Bsus4   B5                                    A5 E5
    PM|   PM|           PM|   PM|   PM|   PM|     PM|   PM|
  |-3-| |-3-|         |-3-| |-3-| |-3-| |-3-|   |-3-| |-3-|
  E E E E E E Q  Q    E E E E E E E E E E E E   E E E E E E Q  Q
|-------------------|-------------------------|-------------------|
|-------------5--5--|-------------------------|-------------------|
|-------------4--4--|-4-----4-----4-----4-----|-4-----4-----2-----|
|-4-----4-----2--2--|-4-----4-----4-----4-----|-4-----4-----2--2--|
|-4-----4-----2--2--|-2-2-2-2-2-2-2-2-2-2-2-2-|-2-2-2-2-2-2-0--2--|
|-2-2-2-2-2-2-------|-------------------------|----------------0--|


  F#5   D5 F#5   D5E5  F#5   D5 Bsus4
    PM|      PM|         PM|
  |-3-|    |-3-|       |-3-|
  E E E Q  E E E E E   E E E Q  Q  Q
|-------5--------5-7-|-------5--------|
|-------3--------3-5-|-------3--5--5--|
|--------------------|----------4--4--|
|-4--------4---------|-4--------2--2--|
|-4--------4---------|-4--------2--2--|
|-2-2-2----2-2-2-----|-2-2-2----------|


  B5                                    A5 E5
    PM|   PM|   PM|   PM|     PM|   PM|
  |-3-| |-3-| |-3-| |-3-|   |-3-| |-3-|
  E E E E E E E E E E E E   E E E E E E Q  Q
|-------------------------|--------------------||
|-------------------------|--------------------||
|-4-----4-----4-----4-----|-4-----4-----2------||
|-4-----4-----4-----4-----|-4-----4-----2--2---||
|-2-2-2-2-2-2-2-2-2-2-2-2-|-2-2-2-2-2-2-0--2---||
|-------------------------|----------------0---||


 Pre Chorus
  G#m                A                 F#m                E5/F#F#sus4
  E E E Q  E +E  E   E E E Q  Q  +E    E E E Q  E +E  E   Q.   E Q  +Q
|-------4--6-(6)-7-|-----------------|-------2--4-(4)-2-|------------------||
|-----4------------|-------5---------|-----2------------|-5----------------||
|---4--------------|-----6----6--(6)-|---2--------------|-4----4-4--(4)\---||
|-6----------------|-7-7-------------|-4----------------|-4----4-4--(4)\---||
|------------------|-----------------|------------------|------------------||
|------------------|-----------------|------------------|------------------||


   Chorus
    E5               A5             B5   C#B5C#5        E5/F#  F#sus4
    Q.    +Q     E E E   +H.        Q    E E H     Q    Q.     E Q   +Q       4x
||---------------------|---------------|--------------|-----------------------||
||o--------------------|---------------|--------------|-5--------------------o||
||--9-----(9)--------2-|-(2)--------4--|-6-4-6-----6--|-4------4-4---(4)\-----||
||--9-----(9)\-------2-|-(2)--------4--|-6-4-6-----6--|-4------4-4---(4)\-----||
||o-7-----(7)\---2-4-0-|-(0)--------2--|-4-2-4-----4--|----------------------o||
||---------------------|---------------|--------------|-----------------------||
|
|   Gtr II
|   q   q      q   q      q   q  q  q    q   q  q  q    E  E E E E E  E    E  4x
||---------------------|---------------|--------------|-----------------------||
||o--------------------|---------------|--------------|----------------------o||
||--9---9------9---9---|--9---9--9--9--|-9---9--9--9--|-9--9-9-9-8-9-11---13--||
||---------------------|---------------|--------------|-----------------------||
||o-7---7------7---7---|--7---7--7--7--|-7---7--7--7--|-7--7-7-7-6-7--9---11-o||
||---------------------|---------------|--------------|-----------------------||


  E5               A5             B5   C#B5C#5        E5/F#  F#sus4
  Q.    +Q     E E E   +H.        Q    E E H     Q    Q.     E Q   +Q
|--------------------|---------------|--------------|-----------------------*|
|--------------------|---------------|--------------|-5---------------------*|
|-9-----(9)--------2-|-(2)--------4--|-6-4-6-----6--|-4------4-4---(4)\-----*|
|-9-----(9)\-------2-|-(2)--------4--|-6-4-6-----6--|-4------4-4---(4)\-----*|
|-7-----(7)\---2-4-0-|-(0)--------2--|-4-2-4-----4--|-----------------------*|
|--------------------|---------------|--------------|-----------------------*|
|
| q   q      q   q      q   q  q  q    q   q  q  q    E  E E E E E  E    E
|--------------------|---------------|--------------|-----------------------*|
|--------------------|---------------|--------------|-----------------------*|
|-9---9------9---9---|--9---9--9--9--|-9---9--9--9--|-9--9-9-9-8-9-11---13--*|
|--------------------|---------------|--------------|-----------------------*|
|-7---7------7---7---|--7---7--7--7--|-7---7--7--7--|-7--7-7-7-6-7--9---11--*|
|--------------------|---------------|--------------|-----------------------*|


Duration Legend
---------------
W - whole; H - half; Q - quarter; E - 8th; S - 16th; T - 32nd; X - 64th; a - acciaccatura
+ - note tied to previous; . - note dotted; .. - note double dotted
Uncapitalized letters represent notes that are staccato (1/2 duration)
Irregular groupings are notated above the duration line
Duration letters will always appear directly above the note/fret number it represents the
duration for.  Duration letters with no fret number below them represent rests.  Multi-
bar rests are notated in the form Wxn, where n is the number of bars to rest for.  Low
melody durations appear below the staff

Tablature Legend
----------------
 h   - hammer-on
 p   - pull-off
 b   - bend
 pb  - pre-bend
 r   - bend release (if no number after the r, then release immediately)
 /\  - slide into or out of (from/to "nowhere")
 s   - legato slide
 S   - shift slide
  - natural harmonic
[n]  - artificial harmonic
n(n) - tapped harmonic
 ~   - vibrato
 tr  - trill
 T   - tap
 TP  - trem. picking
 PM  - palm muting
\n/  - tremolo bar dip; n = amount to dip
 \n  - tremolo bar down
 n/  - tremolo bar up
/n\  - tremolo bar inverted dip
 =   - hold bend; also acts as connecting device for hammers/pulls
 <>  - volume swell (louder/softer)
 x   - on rhythm slash represents muted slash
 o   - on rhythm slash represents single note slash

Misc Legend
-----------
 |  - bar
||  - double bar
||o - repeat start
o|| - repeat end
*|  - double bar (ending)
 :  - bar (freetime)
 $  - Segno
 &  - Coda
Tempo markers -  = BPM(8/16=s8/s16), where s8 = swing 8ths, s16 = swing 16ths
Comments