Ozzy Osbourne - Waiting For Darkness Chords & Tabs

 

Waiting For Darkness Chords & Tabs

Ozzy Osbourne Chords & Tabs

Version: 1 Type: Bass Tab 0 ratings
1 star 2 stars 3 stars 4 stars 5 stars
comments

Waiting For Darkness Bass Tab

=== Crankster's Ozzy Page
=== http://crankster.cjb.net
=== crankster@mailexcite.com

Transcriber - Ryan Silke 

Waiting For Darkness
Ozzy Osbourne- Bark At The Moon


Intro
G-------|--------------------------------------------------
D-------|--------------------------------------------------
A---R---|--7---7---R---7---7---R---7---7---R---7---7---R---
E-------|----0-----------0-----------0-----------0---------


Intro 2  x 2
G---------------------------------------------------------
D-----------------------------------------------5----4----
A--7---7-----7---7---7-----7----3---3-----3---------------
E----0-----0---0---0-----0---0----3-----3---3-------------


Verse x 2
G-----------------------------------------------------------
D-----------------------------------------------------------
A--7---7-----7---7---7-----7---7---7-----7---7---7-----7----
E----0-----0---0---0-----0---0---0-----0---0---0-----0---0--


repeat Intro 2 x 1
repeat Verse x 2


G-----------
D-----------
A--/9-7-5---
E-----------


Pre-Chorus x 2
G----------------------------------------------------------
D----------------------------------------------------------
A--7--7---10\--5--5---10\--3--3-3-3-3-3-3-2-3-5------------
E-----------------------------------------------0-2-3p2-0--


Chorus
G---------------------------------------------------------
D-----------------------------------------------5----4----
A--7---7-----7---7---7-----7----3---3-----3---------------
E----0-----0---0---0-----0---0----3-----3---3-------------


repeat Verse x 2
repeat Pre-chorus x 1


Pre-Chorus Fill                             "Waiting for.."
G-------------------------------------------------
D-------------------------------------------------
A--7--7---10\--5--5---10\--3--3-3-3-3-3-3-3---R---
E-------------------------------------------------

[ Tab from: http://www.guitartabs.cc/tabs/o/ozzy_osbourne/waiting_for_darkness_btab.html ]
Bridge "..Darkness.."
G------------------------------------------------------------------------
D------------------------------------------------------------------------
A-------3-3-3-3-3-3-3-3-3-3-3-3-3-3-3-3-5-5-5-5-5-5-5-5-5-5-5-5-5-5-5-5--
E------------------------------------------------------------------------


G---------------------------------------------------------------------
D---------------------------------------------------------------------
A--7-7-7-7-7-7-7-7-7-7-7-7-7-7-7-7-5-5-5-5-5-5-5--5--2-3-5------------
E----------------------------------------------------------0-2-3p2-0--


Interlude
G---------------------------------------------------------9------------
D--9---8---------9---8----9-11--------------------9--9h11--------9-----
A---------9-9-9---------9------9\7-7-7-7-7-7-9h11-----------9h11---11--
E----------------------------------------------------------------------


G-------------------------------------------------------------------
D--9---8---------9---8---8-9-11-12---------------9----7---6---4-6\--
A---------9-9-9--------------------0-0-0-0-0-0-0---10---9---7-------
E-------------------------------------------------------------------


G---------------------------------------------------------
D--9---8--------------------------------------------------
A---------9-9-9\-5---4--------/7---6----------9--11--12\--
E-----------------------5-5-5---------7-7-7---------------


Solo x 6
G---------------77----------------77-----------------55----------------55----
D------77----------------77-----------------55----------------55-------------
A--5-5----5-5-5----5-5-5----5-5-5----5-3-3-----3-3-3----3-3-3----3-3-3----3--
E----------------------------------------------------------------------------


repeat Chorus x 2
repeat Verse x 2
repeat Pre-Chorus x 5


Pre-Chorus Fill
G-------------------------------------------------------------
D-------------------------------------------------------------
A--7--7---10\--5--5---10\--3--3--5-5--3--3--5-5--3--3--5--5---
E-------------------------------------------------------------


End
G--------------------
D--------------------
A--2-3-5-------------
E--------0-2-3p2-0---


Comments