Ozzy Osbourne - Time After Time Chords & Tabs

 

Time After Time Chords & Tabs

Ozzy Osbourne Chords & Tabs

Version: 1 Type: Tab 0 ratings
1 star 2 stars 3 stars 4 stars 5 stars
comments

Time After Time Tab

   
Time after time     -      OzZy

Tune down 1/2 step: Eb Ab Db Gb Bb Eb    RATE!
Finger picking
intro
|-------10---------9------9----------|-10-----9---------7---------------|
|-----------10-------10-------10-----|----7-------7-------7---10-----12-|
|-----9--------9--------9--------9---|------7-------7-------7-----7--0--|
|---7------------7-----------------0-|----------------0-----------------|
|-0----------------------------------|----------------------------------|
|------------------------------------|----------------------------------|

|-10---\----9---\---7--\---5-----|------------------------------|
|----12\-10---10\-8---8\-7---7---|---7---7-------8-----7--------|
|-------0--------0------0------0-|-----7----7------7------7---7-|
|--------------------------------|-0-----------0-----0------0---|
|--------------------------------|------------------------------|
|--------------------------------|------------------------------|
                                                       nail
|-------0----------------------|-------0---------5-----5-----|
|---------5--------------------|---------5-------5-----5-----|
|-----6-----6---7-----6------6-|-----6-----6---------------4-|
|---7---------7---7------7-----|---7---------7---0---0-------|
|-0-----------------0------0---|-0-------------5---4-----2---|
|------------------------------|-----------------------------|

verse
"Time after time,                i guess that love is blind..."
|-------0----------------------|-------0--------------0---------|
|---------5--------------------|---3------3---3---3-----3---3---|
|-----6-----6---7-----6------6-|-----0------0-------0-----0-----|
|---7---------7---7------7-----|-5--------------5---------------|
|-0-----------------0------0---|--------------------------------|
|------------------------------|--------------------------------|

"I couldnt read your"
|----------5--------|
|----3--------3-----|
|-------0----------0|
|-4-------------4---|
|-------------------|
|-------------------|

"mind line after    line"
|-------5---------|-------0-----------------------|
|-----0---0-----0-|---------5---------------------|
|---5-------5-2---|-----6-----6---7-----6------5--|
|-3---------------|---7---------7---7------7------|
|-----------------|-0-----------------0------0----|
|-----------------|-------------------------------|

 "Line after line,       it was  written in your eyes
|-------0----------------------|-------0--------------0---------|
|---------5--------------------|---3------3---3---3-----3---3---|
|-----6-----6---7-----6------6-|-----0------0-------0-----0-----|
|---7---------7---7------7-----|-5--------------5---------------|
|-0-----------------0------0---|--------------------------------|
|------------------------------|--------------------------------|
"I guess its no surprise time after time
|-------3-------------5-----------|-------0-----------------------|
|---3-----3---------0----0-----0--|---------5---------------------|
|-------------0---5--------5-2----|-----6-----6---7-----6------5--|
|-4---4-----4---3-----------------|---7---------7---7------7------|
|---------------------------------|-0-----------------0------0----|
|---------------------------------|-------------------------------|

pre chorus
"I can hear them whispering"
   >>>>>>><<<<<<(volume down then up)
|------------------------------------------------|
|--------3---------------------------------------|
|--------2-------2-2------------2-2-------2----2-|
|-5------0-------2-2------------2-2-------2----2-|
|-5--------------0-0------------0-0-------x----0-|
|-3---------------------------------------3b(5)r-|
|
|------------------------10-----------9-----------|
|------------------------10------10-----10--------|
|---------------------9--------9----9-------------|
|-------------------7--------0--------------------|
|-----------------0-------------------------------|
|-------------------------------------------------|

"Shadows in the rain"
   >>>>>>><<<<<(volume down then up)
|------------------------------------------------|
|--------3---------------------------------------|
|--------2-------2-2-----------2-2-------2----2--|
|-5------0-------2-2-----------2-2-------2----2--|
|-5--------------0-0-----------0-0-------x----0--|
|-3--------------------------------------3b(5)r--|
|
|-----------------------10-----------9-----------|
|-----------------------10------10-----10--------|
|--------------------9--------9----9-------------|
|------------------7--------0--------------------|
|----------------0-------------------------------|
|------------------------------------------------|

"Thinking how it might have been"
   >>>>>>><<<<<(volume down then up)
|-----------------------------------------------|
|--------3--------------------------------------|
|--------2---------2-2---------2-2-------2----2-|
|-5------0---------2-2---------2-2-------2----2-|
|-5----------------0-0---------0-0-------x----0-|
|-3--------------------------------------3b(5)r-|
|
|-----------------------10-----------9-----------|
|-----------------------10------10-----10--------|
|--------------------9--------9----9-------------|
|------------------7--------0--------------------|
|----------------0-------------------------------|
|------------------------------------------------|

chorus
"Time after time           line after line"
|------------------------------------------|
|-------------3-------------------------3--|
|-------------0-------------------------0--|
|----2------0-0-----------2-----------0-0--|
|----2------x-x-----------2-----------x-x--|
|3-2-0------2-3-------3-2-0-----------2-3--|

 "you broke me"
                  ph     ph      ph 
|------------|-------------------------|
|------------|-------------------------|
|------------|7------------------------|
|------------|7------------------------|
|------------|5---4~~~~--2~~~~---0-----|
|------------|-------------------------|
|
|------------|-------------------------|
|------------|3---2~~~~----------------|
|------------|2----------4~~~~---2-----|
|------------|0------------------2-----|
|------------|-------------------0-----|
|------------|-------------------------|

verse
 "Day after day,           I watched love fade away"
|---------|-------------------------------|------------------------|
|---------|-------------------------------|------------------------|
|-18~~~---|----18/(19)-18--10\12~~~-------|------18/(19)-18-12\(11)|
|---------|-------------------------------|------------------------|
|-16~~~---|----16/(17)-16--12\10~~~-------|------16/(17)-16-10\-(9)|
|---------|-------------------------------|------------------------|

 "I wanted love to          stay day after    day"
|---------|----------------------------------------------|
|---------|----------------------------------------------|
|-11~~~---|----11h(12)p(11)10---10h(11)p(10)-9~~-/(18)~~~|
|---------|----------------------------------------------|
|--9~~~---|-----9h(10)p-(9)-8----8h(-9)p(-8)-7~~-/(16)~~~|
|---------|----------------------------------------------|

 "The games we played           The foolish things we say
|----------|------------------------------|------------------------------|
|----------|------------------------------|------------------------------|
|-18~~~----|-----18/(19)-18--10\12~~~-----|------------18/(19)-18-12\(11)|
|----------|------------------------------|------------------------------|
|-16~~~----|-----16/(17)-16--12\10~~~-----|------------16/(17)-16-10\-(9)|
|----------|------------------------------|------------------------------|
 
"The pain wont go away           day after    day 
|----------|--------------------------------------------|
|----------|--------------------------------------------|
|-11~~~----|-----11h(12)p(11)10---10h(11)p(10)-9~~~-----|
|----------|---------------------------------------X\\--|
|--9~~~----|------9h(10)p-(9)-8----8h(-9)p(-8)-7~~~X\\--|
|----------|---------------------------------------X\\--|

pre chorus
 "Candlelight is shimmering 
   >>>>>>><<<<<(volume down then up)
|-----------------------------------------------|
|--------3--------------------------------------|
|--------2----------2-2--------2-2-------2----2-|
|-5------0----------2-2--------2-2-------2----2-|
|-5-----------------0-0--------0-0-------x----0-|
|-3--------------------------------------3b(5)r-|
|
|-----------------------10-----------9-----------|
|-----------------------10------10-----10--------|
|--------------------9--------9----9-------------|
|------------------7--------0--------------------|
|----------------0-------------------------------|
|------------------------------------------------|

 "Shadows on the wall"
   >>>>>>><<<<<(volume down then up)
|------------------------------------------------|
|--------3---------------------------------------|
|--------2-----------2-2--------2-2-------2----2-|
|-5------0-----------2-2--------2-2-------2----2-|
|-5------------------0-0--------2-2-------x----0-|
|-3---------------------------------------3b(5)r-|
|
|------------------------10-----------9-----------|
|------------------------10------10-----10--------|
|---------------------9--------9----9-------------|
|-------------------7--------0--------------------|
|-----------------0-------------------------------|
|-------------------------------------------------|

 "Thinking how it might have been"
   >>>>>>><<<<<(volume down then up)
|---------------------------------------------|
|--------3------------------------------------|
|--------2--------2-2--------2-2-------2----2-|
|-5------0--------2-2--------2-2-------2----2-|
|-5---------------0-0--------0-0-------x----0-|
|-3------------------------------------3b(5)r-|
|
|-----------------------10-------------9----------|
|-----------------------10-------10------10-------|
|---------------------9--------9----9-------------|
|-------------------7--------0--------------------|
|-----------------0-------------------------------|
|-------------------------------------------------|

chorus
    "Day after day          The games we played you broke me"
|------------------------------------------------------------|
|---------------3-------------------------3------------------|
|---------------0-------------------------0------------------|
|----2--------0-0-----------2-----------0-0------------------|
|----2--------x-x-----------2-----------x-x------------------|
|3-2-0--------2-3-------3-2-0-----------2-3------------------|
[ Tab from: http://www.guitartabs.cc/tabs/o/ozzy_osbourne/time_after_time_tab.html ]
 Solo: 
Delay
|---------------------------------------------------|
|-20------20-------20b----17------------------------|
|-19b(21)-19b(21)--19b(21)17b(19)-------------------|
|--------------------------------19-17h((19)17~\(2)-|
|---------------------------------------------------|
|---------------------------------------------------|

            ph       ph
|------------------------------|
|------------------------------|
|-------2-4-4b(6)rp2-4~~~p2/---|
|-2h4~~------------------------|
|------------------------------|
|------------------------------|

|-------------------|----------------------------------------|
|-5b(8)----r(5)~~~--|----------------------------------------|
|-------------------|-----2----4b(6)r--2~~~---4b(6)-4b(6)rp2-|
|-------------------|-2-4----4-------4------4----------------|
|-------------------|----------------------------------------|
|-------------------|----------------------------------------|

     Trills using            Trills using
     Index fretting          middle fretting
     Hand                    hand 
|---(05050505050)-----------(05050505050)-----|
|-----------------------------------------10~~|
|-4/(69696969696)\575757575)\47474747474)--0--|
|-----^-^-^-^-^---------------^-^-^-^-^-------|
|-----t-t-t-t-t---------------t-t-t-t-t-------|
|---------------------------------------------|
     tap 9 using | Trills   |tap 7 using
     picking hand| using    |picking hand
                 | 5 index  |
                 | 7 ring   |
                 | picking  |
                 |  hand    |

|-------------------------------------------------------------------|
|-------------------------------------------------------------------|
|-16-14-16-14-------16141614----1614----1614----1614----1614--------|
|-------------16-14---------1614----1614----1614----1614----161416--|
|-------------------------------------------------------------------|
|-------------------------------------------------------------------|
          
                                                      ph
|-----------------1417/(20)17------------------------------------|
|-----1417----1417-----------2017----2017----20b(22)r-20b(22)~~r\|
|-1416----1416-------------------1917----1917--------------------|
|----------------------------------------------------------------|
|----------------------------------------------------------------|
|----------------------------------------------------------------|

|--------------------------------------|
|-5-------7---------8--------10--------|
|-7b(9)~~-9b(11)~~-10b(12)~~-12b(14)~~-|                                              
|--------------------------------------|
|--------------------------------------|
|--------------------------------------|
                                                       release and slide
                                                       simultaneously  
|-20b(22)-20-(20)pb22-20-(20)pb22-20-(20)pb22r(20)b(22)r\-|
|---------------------------------------------------------|
|---------------------------------------------------------|
|---------------------------------------------------------|
|---------------------------------------------------------|
|---------------------------------------------------------|

don't know what to call this I think it's the interlude 
Acoustic 
|-----------------------|---------------|-------------------------|------0--|
|-2--2------------3-----|-----3---2-----|---2-------------3-------|-3----3--|
|-2----2------2-----2---|-------2-2-----|-----2-------2-----2-----|-2----2--|
|-2------2-5----5-----5-|--4------2-----|-------2-5-----5-----5-4-|-4----0--|
|-0---------------------|---------0-----|-0-----------------------|-0----0--|
|-----------------------|---------------|-------------------------|---------|
|Electric
|-----------------------------|---------|-----------------------------------|
|-----------------------------|---------|-----------------------------------|
|-----------------------------|---------|-----------------------------------|
|-7---------------------------|---------|-----------------------------------|
|-7---------------------------|---------|-----------------------------------|
|-5---------------------------|---------|-----------------------------------|

Acoustic
|-----------------------|---------------|-----------------------|--------|
|---2-------------3-----|-----3---2-----|---2-------------3-----|-3------|
|-----2-------2-----2---|-------2-2-----|-----2-------2-----2---|-2------|
|-------2-5-----5-----5-|--4------2-----|-------2-5-----5-----5-|-0------|
|-0---------------------|---------0-----|-0---------------------|-0------|
|-----------------------|---------------|-----------------------|--------|
|Electric                                               Pm........
|-----------------------|------------------------------------------------|
|-----------------------|------------------------------------------------|
|-----------------------|-----------------------------------------666666-|
|-7---------------------|---------------XX5-------------5555555555555555-|
|-7---------------------|---------------XX5-------------5555555555555555-|
|-5---------------------|---------------XX7-------------7777777777777777-|

pre chorus
"Candlelight is shimmering 
   >>>>>>><<<<<(volume down then up)
|-----------------------------------------------|
|--------3--------------------------------------|
|--------2----------2-2--------2-2-------2----2-|
|-5------0----------2-2--------2-2-------2----2-|
|-5-----------------0-0--------0-0-------x----0-|
|-3--------------------------------------3b(5)r-|
|
|-----------------------10-----------9-----------|
|-----------------------10------10-----10--------|
|--------------------9--------9----9-------------|
|------------------7--------0--------------------|
|----------------0-------------------------------|
|------------------------------------------------|

 "Shadows on the wall"
   >>>>>>><<<<<(volume down then up)
|------------------------------------------------|
|--------3---------------------------------------|
|--------2-----------2-2--------2-2-------2----2-|
|-5------0-----------2-2--------2-2-------2----2-|
|-5------------------0-0--------0-0-------x----0-|
|-3---------------------------------------3b(5)r-|
|
|------------------------10-----------9-----------|
|------------------------10------10-----10--------|
|---------------------9--------9----9-------------|
|-------------------7--------0--------------------|
|-----------------0-------------------------------|
|-------------------------------------------------|

 "Thinking how it might have been"
   >>>>>>><<<<<(volume down then up)
|---------------------------------------------|
|--------3------------------------------------|
|--------2--------2-2--------2-2-------2----2-|
|-5------0--------2-2--------2-2-------2----2-|
|-5---------------0-0--------0-0-------x----0-|
|-3------------------------------------3b(5)r-|
|
|-----------------------10-------------9----------|
|-----------------------10-------10------10-------|
|---------------------9--------9----9-------------|
|-------------------7--------0--------------------|
|-----------------0-------------------------------|
|-------------------------------------------------|

chorus
"Time after time           line after line"
|------------------------------------------|
|-------------3-------------------------3--|
|-------------0-------------------------0--|
|----2------0-0-----------2-----------0-0--|
|----2------x-x-----------2-----------x-x--|
|3-2-0------2-3-------3-2-0-----------2-3--|
              
              Fill
 "you broke me" 
              Some delay for this measure                 ph
|------------|------------------------------------------------|
|------------|------------------------------------------------|
|------------|7----------------2-------2-------2--------2-----|
|------------|7--PH-----PH-----2-------2-------2--------2-----|
|------------|5---4~~~~--2~~~~-0-------0-------0--------0-----|
|------------|-------------------3b(5)r--3b(5)r--3b(5)r---3b~~|

chorus
"Time after time           line after line"
|------------------------------------------|
|-------------3-------------------------3--|
|-------------0-------------------------0--|
|----2------0-0-----------2-----------0-0--|
|----2------x-x-----------2-----------x-x--|
|3-2-0------2-3-------3-2-0-----------2-3--|

 "you broke me"
|-------------------------------|
|-------------------------------|
|-------------7-----------------|
|-------------7--PH-----PH------|
|-------------5---4~~~~--2~~~~--|
|-------------------------------|
|
|-------------------------------|
|-------------3---2~~~~---------|
|-------------2----------4~~~~--|
|-------------0-----------------|
|-------------------------------|
|-------------------------------|

Outro
|-------10---------9------9----------|-10-----9---------7---------------|
|-----------10-------10-------10-----|----7-------7-------7---10-----12-|
|-----9--------9--------9--------9---|------7-------7-------7-----7--0--|
|---7------------7-----------------0-|----------------0-----------------|
|-0----------------------------------|----------------------------------|
|------------------------------------|----------------------------------|
|
|------------------------------------|
|------------------------------------|
|-2----------------------------------|
|-2----------------------------------|
|-0----------------------------------|
|------------------------------------|
|
|------------------------------------|
|------------------------------------|
|-2----------------------------------|
|-2----------------------------------|
|-0----------------------------------|
|------------------------------------|

|-10---\----9---\---7--\---5-----|------------------------------|
|----12\-10---10\-8---8\-7---7---|---7---7-------8-----7--------|
|-------0--------0------0------0-|-----7----7------7------7---7-|
|--------------------------------|-0-----------0-----0------0---|
|--------------------------------|------------------------------|
|--------------------------------|------------------------------|

|-------10---------9------9----------|-10-----9---------7---------------|
|-----------10-------10-------10-----|----7-------7-------7---10-----12-|
|-----9--------9--------9--------9---|------7-------7-------7-----7--0--|
|---7------------7-----------------0-|----------------0-----------------|
|-0----------------------------------|----------------------------------|
|------------------------------------|----------------------------------|

|-10---\----9---\---7--\---5-----|--3--------------------|
|----12\-10---10\-8---8\-7---7---|--3--------------------|
|-------0--------0------0------0-|--2--------------------|
|--------------------------------|--0--------------------|
|--------------------------------|--0--------------------|
|--------------------------------|-----------------------|

there you go not 100% accurate but close. an idea. rate!
This is a really cool song.     PEACE!!!! Rock on\../_
Comments