Ozzy Osbourne - The Ultimate Sin Chords & Tabs

 

The Ultimate Sin Chords & Tabs

Ozzy Osbourne Chords & Tabs

Version: 2 Type: Tab 0 ratings
1 star 2 stars 3 stars 4 stars 5 stars
comments

The Ultimate Sin Tab

   
Band- Ozzy Osbourne
Album- The Ultimate Sin

1.THE ULTIMATE SIN

Drums:     Fade in with feedback, (D) effects and pick slide
e|---------------------------------------------------------------------------|
B|---------------------------------------------------------------------------|
G|---------------------------------------------------------------------------|
D|---------------------------------------------------------------------------|
A|---------------------------------------------------------------------------|
E|---------------------------------------------------------------------------|


Intro/Chorus:
e|---------------------------------------------------------------------------|
B|-3--------6-5----------8-----------8-6---6-6-6\---33--------6-5----------8|
G|-2--------5-4----------7-7---------7-5---5-5-5\---22--------5-4----------7|
D|-0-0-0-00-3-2-0-0-0-00-5-7---------5-3---3-3-3\---00-0-0-00-3-2-0-0-0-00-5|
A|-0-----------------------5-5-5-5-55----55-55-------00----------------------|
E|---------------------------------------------------------------------------|

		   	Riff A			Riff B
e|-----------------1st--time------------2nd/3rd -time----------------------------|
B|------------8-6-----------------------------------------------------------------|
G|-7----------7-5-----5---------------7p6p5\2-0h2p0-------------------------------|
D|-7----------5-3-5H7-7-2/7\2---------------------0-5b7--------------------------|
A|-5-5-5-5-55-----7---------------------------------------------------------------|
E|--------------------------------------------------------------------------------|


Verse: 1, 2, and 3
1.	Overkill&
2.	Any way&
3.	I warned&

	Guitar 1
e|-------3-------------3-------------------3---8---------3-------------------|
B|-3----6-6-5H6-5--3---3-------------3----6-6-5-6-5--3---3-------------------|
G|-2---5---5-----5-2---5-------------2---5---------5-2---5-------------------|
D|-0---------------0---5-------------0---------------0---5-------------------|
A|-0---------------0---3-------------0---------------0---3-------------------|
E|---------------------------------------------------------------------------|
	Guitar 2
e|---------------------------3--------------------------------3--------------|
B|---------------------------3-5------------------------------3--------------|
G|-7---10---10--9--7---5-5-5---5-5---7---10---10--9--7---5-5-5---5--5--------|
D|-7---10---10--9--7---5-5-5-----5---7---10---10--9--7---5--5----5--5--------|
A|-5----8----8--7--5---3---3-----3---5----8----8--7--5---3-------3--3--------|
E|---------------------------------------------------------------------------|


Pre chorus:
 	Guitar 1
e|---------------------------X2----------------------------------------------|
B|--------------------------- --------------------------6p5----8-6-5---------|
G|7----7----7----7----7------ -7----7----7-----55-77-55----7-5------5--------|
D|0----0----0----0----0-----5 -0----0----0---77------------------------------|
A|-5555-5555-5555-5555-5555-3 --5555-5555--55--------------------------------|
E|---------------------------------------------------------------------------|
  	Guitar 2: Harmonic played at the 7th in D with slight tremolo,
		   using bar to bend whole step.
e|---------------------------------------------------------------------------|
B|---------------------------------------------------------------------------|
G|<7>------------------------------<7>b<9>r<7>-------------------------------|
D|---------------------------------------------------------------------------|
A|---------------------------------------------------------------------------|
E|---------------------------------------------------------------------------|

Interlude:
	o = open wah pedal (foot down) and + = close wah pedal (heel down)

e|o-+-o-+-o-+-o-+-o-+-o-------------o----------------------------------------|
B|----------------------------------8----------------------------------------|
G|7\-/7\-/7\-/7\-/7\-/7\-10-9------10---7\-/7\-/7\-/7\-/7\-/7\-10-9------1010|
D|7\-/7\-/7\-/7\-/7\-/7\-----10-7--10---7\-/7\-/7\-/7\-/7\-/7\-----10-7--1010|
A|-------------------------------8--8----------------------------------8-----|
E|---------------------------------------------------------------------------|


Solo:
	Guitar 1
e|----------------------------------4-4-------------------7--------5---------|
B|---------------7p5---------4-5p4-4---7-5-4--------5-7p5-10p7-5h7----5-7p5-|
G|\6-8p6-9p6-8p6----8-6--/4-6-----6---------6-4--6/8-8--------------6/8-8----|
D|---------------------------------------------------------------------------|
A|---------------------------------------------------------------------------|
E|---------------------------------------------------------------------------|
	Guitar 2
e|---------------------------------------------------------------------------|
B|---------------------------------------------------------------------------|
G|2----------------------4-----------------------6------------------4--------|
D|2----------------------4-----------------------6------------------4--------|
A|0----------------------2-----------------------4------------------2--------|
E|---------------------------------------------------------------------------|
	Guitar 1
e|11-9p7----7-7-9-9p7-10p7-9p7-12p7-10p7-9p7-10p79-11-11p9-12p9-11p9-14p9-12|
B|------10p7-----------------------------------------------------------------|
G|---------------------------------------------------------------------------|
D|---------------------------------------------------------------------------|
A|---------------------------------------------------------------------------|
E|---------------------------------------------------------------------------|
	Guitar 2  strum chords as 16th notes.
e|---------------------------------------------------------------------------|
B|---------8--------------------------------------10-------------------------|
G|---------7---------------------------------------9-------------------------|
D|---------5---------------------------------------7-------------------------|
A|---------------------------------------------------------------------------|
E|---------------------------------------------------------------------------|
	Guitar 1
e|p9-11p9-12p9-10-12-12p10-13p10-12p10-15p10-13p10-12p10-13p10-12-14-14p12-15|
B|---------------------------------------------------------------------------|
G|---------------------------------------------------------------------------|
D|---------------------------------------------------------------------------|
A|---------------------------------------------------------------------------|
E|---------------------------------------------------------------------------|
	Guitar 2
e|---------------------------------------------------------------------------|
B|-------------11----------------------------------------------13------------|
G|-------------10----------------------------------------------12------------|
D|--------------8----------------------------------------------10------------|
A|---------------------------------------------------------------------------|
E|---------------------------------------------------------------------------|

	Guitar 1
e|p12-14p12-1212-1412-1512-171220b22----------------------------------------|
B|---------------------------------------------------------------------------|
G|---------------------------------------------------------------------------|
D|---------------------------------------------------------------------------|
A|---------------------------------------------------------------------------|
E|---------------------------------------------------------------------------|
	Guitar 2				Go to Intro chorus with riff B
e|---------------------------------------------------------------------------|
B|-----------------------------------3---------------------------------------|
G|-----------------------------------2---------------------------------------|
D|-----------------------------------0---------------------------------------|
A|-----------------------------------0---------------------------------------|
E|---------------------------------------------------------------------------|

	End of 4Th chorus				 Ending:
					 Guitar 1
    Riff played at end of 4th chorus
e|---------------------------------------------------------------------------|
B|3p1p0-----5p3p2-----6p5p3------------3--------6------5--------8------3-----|
G|-----2p1p0-----5p4p2-----7p5p4-------2--------5------4--------7------2-----|
D|------------------------------7p5p3--0000000-3-0000-2-000000-5-0000-0-0000|
A|---------------------------------------------------------------------------|
E|---------------------------------------------------------------------------|
	Guitar 1
e|---------------------------555---8\----------------------------------------|
B|---8------6---------777-666---666----3--------6------5--------8------3-----|
G|---7------5-555-777------------------2--------5------4--------7------2-----|
D|00-5-0000-3--------------------------0-000000-3-0000-2-0000005-0000-0-0000|
A|---------------------------------------------------------------------------|
E|---------------------------------------------------------------------------|
	Guitar 1
e|---------------------------------------------------------------------------|
B|---8------6--6--6----6--6--6----6--6--6------------------------------------|
G|---7------5--5--5----5--5--5----5--5--5---7\------------------------------|
D|00-5-0000-3--3--3----3--3--3----3--3--3---7\------------------------------|
A|-------------------------------------------5\------------------------------|
E|---------------------------------------------------------------------------|
	Guitar 2 					let ring&
e|--------------1-0h1------1-0h1------1-0h1---------0-------0-------0----2---|
B|-------------3-3---3----3-3---3----3-3---3------------3-------3--------3---|
G|----------2----------2----------2----------2----2---2---2---2---2---2--2---|
D|----------------------------------------------0------------------------0---|
A|---------------------------------------------------------------------------|
E|---------------------------------------------------------------------------|

2.SECRET LOSER

e|---------------------------------------------------------------------------|
B|--------------------x8-7---------------------------------------x8-7--------|
G|----7/9-------7-9-7-x7-7-7\5-------5-7-5-xx5-7-7/9-------7-9-7-x7-7-7\5----|
D|----7/9------7--9-7------7\5------5--5-5-xx5-7-7/9------7--9-7------7\5----|
A|----5/7-7-7-7------------5\3-3-3-3-------xx3-5-5/7-7-7-7------------5\3-3-3|
E|12\------------------------------------------------------------------------|

  Verse - Riff A ------->
	Guitar 1
e|---------------------------------------------------------------------------|
B|---------------------------------------------------------------------------|
G|--5-7-5-xx5-7-7/9----------7\5----------7/9----------7\5-------------------|
D|-5--5-5-xx5-7-7/9---------7\5---------7/9---------7\5-------------------|
A|3-------xx3-5-5/7----------5\3----------5/7----------5\3-------------------|
E|---------------------------------------------------------------------------|
 	Guitar 2 - Riff C 			    *bend notes slightly
e|--------------------7-----------3-------------7------------3---------------------|
B|---------------------7-----------3-------------7------------3--------------------|
G|----------------------9-9\---------5-5�---------9-9\---------5-5�--|
D|------------------------9\-----------5�-----------9\-----------5�--|
A|--------------------------------------*-------------------------*----------------|
E|---------------------------------------------------------------------------------|

  Verse  Riff B ------->              Harmonics
   		                    1st time	2nd time
e|0--------0----------0-------0-------5---------------55---------------------|
B|0--------0----------0-------0-----75-457--------44----55-77-55-------------|
G|4---8\4--4----2x2-2-4---5-7-9-----------7-----55--55-----------------------|
D|4---8\4--4----2x2-2-4---5-7-9----------------------------------------------|
A|2---6\2-------0x0-0-2---3-5-7----------------------------------------------|
E|---------------------------------------------------------------------------|

  Interlude
e|----------------------------------------------------0----------------------|
B|----------------------------------------------------0----------------------|
G|4-2-x2-4-2-x2-4-----4-2-x2-4-2-x2-4-4-5----7----7-99------------5---7---4-2|
D|4-2-x2-4-2-x2-4---5-4-2-x2-4-2-x2-4-4-5----7----7-99-----4---2--5---7---4-2|
A|2-0-x0-2-0-x0-2p0-5-2-0-x0-2-0-x0-2-2-3----5----5-77----4---2---3---5---2-0|
E|------------------3------------------------------------2--00---------------|

								     Pick slide
e|----------------------------0----------------------------------------------|
B|----------------------------0----------------------------------------------|
G|x2-4-2-x2-4-4-5----7----7-99------------5---7----4444-4444-4444-4444-------|
D|x2-4-2-x2-4-4-5----7----7-99-----4---2--5---7----4444-4444-4444-4444------|
A|x0-2-0-x0-2-2-3----5----5-77----4---2---3---5----2222-2222-2222-2222-------|
E|-------------------------------2--00---------------------------------------|
[ Tab from: http://www.guitartabs.cc/tabs/o/ozzy_osbourne/the_ultimate_sin_tab_ver_2.html ]
  Solo
  Guitar 1				bend up 1/4 step with bar
e|---------------------------------------------------------------------------|
B|---------------------------------------------------------------------------|
G ------15-14\12--9\7/9\-----------15b-15\14/15-1414\12---12/14-\12----------|
D|---------------------------------------------------------------------------|
A|------1312\10--7\5/7\-----------13b-13\12/13-1212\10---10/12-\10----------|
E|---------------------------------------------------------------------------|
  Guitar 2
e|0------------3--------------0-----------------------3----------------------|
B|0------------3--------------0-----------------------3----------------------|
G|x------------5--------------x-----------------------5----------------------|
D|2------------5--------------2-----------------------5----------------------|
A|2------------3--------------2-----------------------3----------------------|
E|0---------------------------0----------------------------------------------|
  Guitar 1
e|---------------------------------------------------------------------------|
B|8p7---8p7---8p7---8p7---10p7---10p7---10p7---10p7----12-10-----10----------|
G|---9-7---9-7---9-7---9-7----9-7----9-7----9-7----9-7------12-11--12-11-9-12|
D|---------------------------------------------------------------------------|
A|---------------------------------------------------------------------------|
E|---------------------------------------------------------------------------|
  Guitar 2
e|0--------------------------------------------------------------------------|
B|0--------------------------------------------------------------------------|
G|x------------------------0----------------------------7--------------------|
D|2------------------------5----------------------------7--------------------|
A|2------------------------5----------------------------5--------------------|
E|0------------------------3-------------------------------------------------|
  Guitar 1							       hold bend
e|--------------------------------------17-------17--------19-------19-20b22-|
B|-------------------------------10/1515--10/1515---12/1717--12/1717---------|
G|11-9--11-9-----9/12\11-9-<7>pinch------------------------------------------|
D|----12----12-9-------------------------------------------------------------|
A|---------------------------------------------------------------------------|
E|---------------------------------------------------------------------------|
  Guitar 2
e|---------------------------------------------------------------------------|
B|---------------------------------------------------------------------------|
G|---------------10---------------9-----------------12---------------7-------|
D|---------------10---------------9-----------------12---------------7-------|
A|----------------8---------------7-----------------10---------------5-------|
E|---------------------------------------------------------------------------|
  Guitar 1
 Tap string with edge of pick off fret board  approx. an octave above 22 fret
e|xxx-xxx-xxx--22r20-20------------------------------------------------------|
B|----------------------h18p15t20p15h18p15t20p15h18p15t20p15h18p15t20p15-h19p|
G|---------------------------------------------------------------------------|
D|---------------------------------------------------------------------------|
A|---------------------------------------------------------------------------|
E|---------------------------------------------------------------------------|
  Guitar 2
e|-----------------------|
B|-----------------------|
G|-------------10--------|
D|-------------10--------|
A|--------------8--------|
E|-----------------------|

  Guitar 1
e|---------------------------------------------------------------------------|
B|15t22p15h19p15t22p15h19p15t22p15h19p15t22p15-h20p15t23p15h20p15t23p15h20p15|
G|---------------------------------------------------------------------------|
D|---------------------------------------------------------------------------|
A|---------------------------------------------------------------------------|
E|---------------------------------------------------------------------------|

e|---------------------------------------------------------------------------|
B|t23p15h20p15t23p15-h19p15t22p15h19p15t22p15h19p15t22p15h19p15t22p15-h18p15t|
G|---------------------------------------------------------------------------|
D|---------------------------------------------------------------------------|
A|---------------------------------------------------------------------------|
E|---------------------------------------------------------------------------|

e|---------------------------------------------------------------------------|
B|20p15h18p15t20p15h18p15t20p15h18p15t20p15-h19p15t22p15h19p15t22p15h19p15t22|
G|---------------------------------------------------------------------------|
D|---------------------------------------------------------------------------|
A|---------------------------------------------------------------------------|
E|---------------------------------------------------------------------------|


e|---------------------------------------------------------------------------|
B|p15h19p15t22p15(17)-----17p15-----------------------------------22b24r----|
G|-----------------19b21--------16-15-19-16p15----16p15-------14/x-------21~-|
D|---------------------------------------------17-------17-14----------------|
A|---------------------------------------------------------------------------|
E|---------------------------------------------------------------------------|

e|---------------------------------------------------------------------------|
B|--------------------x8-7---------------------------------------x8-7--------|
G|----7/9-------7-9-7-x7-7-7\5-------5-7-5-xx5-7-7/9-------7-9-7-x7-7-7\5----|
D|----7/9------7--9-7------7\5------5--5-5-xx5-7-7/9------7--9-7------7\5----|
A|----5/7-7-7-7------------5\3-3-3-3-------xx3-5-5/7-7-7-7------------5\3-3-3|
E|---------------------------------------------------------------------------|


             With feedback (E)-------------------------------------------------|
e|-----------------------------------------------------------------------------|
B|----------------0------------------------------------------------------------|
G|--5-7-5-xx5-7-7/9------------------------------------------------------------|
D|-5--5-5-xx5-7-7/9---------------------------------------------------------|
A|3-------xx3-5-5/7------------------------------------------------------------|
E|-----------------------------------------------------------------------------|

    Harmonics&&&&&&&&&&&&&&&&&&&&&&&&&&&&&&&&&&&&&&&&&&&&&
e|--12--------12-----7--------7-12----5-----------------12-------------------|
B|--12-----------7----------7----------5--5------------12--------------------|
G|--12-------------5------5-------------5--5-7--------12---------------------|
D|---------------------------------------------------12----------------------|
A|---------------------------------------------------------------------------|
E|-0-------------------------------------------------------------------------|

   Let ring&&&&&&&&&&&&&&&&&&&&&&&&&&&&&&&&&&&&&&&&&&&&&&&

e|-0-------0---------------0-------0---------------0-------------------------|
B|-----4-------4-------4-------4-------4-----4---4-----4---------------------|
G|---4---4---4---4---4---4---4---4---4---4-4---4-----4---4-------4---5---7---|
D|---------------------------------------------------------------2---5---7---|
A|-----------------2----------------------------------------x\---2---3---5---|
E|----------------------------------------------------------x\---------------|

	Harmonics&&&&&&&
e|0-----------55-------------------------------------------------------------|
B|0-------44----55-77-55-----------------------------------------------------|
G|9-----55--55---------------------------------------------------------------|
D|9--------------------------------------------------------------------------|
A|7--------------------------------------------------------------------------|
E|---------------------------------------------------------------------------|

 Fade out playing chorus and Riff C &&&&&

  Guitar 1 - Chorus
e|---------------------------------------------------------------------------|
B|-----------------x8-7---------------------------------------x8-7-----------|
G|-7/9-------7-9-7-x7-7-7\5-------5-7-5-xx5-7-7/9-------7-9-7-x7-7-7\5-------|
D|-7/9------7--9-7------7\5------5--5-5-xx5-7-7/9------7--9-7------7\5------5|
A|-5/7-7-7-7------------5\3-3-3-3-------xx3-5-5/7-7-7-7------------5\3-3-3-3-|
E|---------------------------------------------------------------------------|

e|------------|
B|------------|
G|5-7-5-xx5-7-|
D|--5-5-xx5-7-|
A|------xx3-5-|
E|------------|

  Guitar 2 - Riff C 			    *bend notes slightly
e|--------------------7-----------3-------------7------------3---------------------|
B|---------------------7-----------3-------------7------------3--------------------|
G|----------------------9-9\---------5-5�---------9-9\---------5-5�--|
D|------------------------9\-----------5�-----------9\-----------5�--|
A|--------------------------------------*-------------------------*----------------|
E|---------------------------------------------------------------------------------|

3.NEVER KNOW WHY

Don't Know

4.THANK GOD FOR THE BOMB

Don't Know

5.NEVER

Don't Know

6.LIGHTNING STRIKES

Don't Know

7.KILLER OF GIANTS

First part played with delay. Play so that the delay notes keep time with the actual notes
(let ring...)
-------------------------0-----|
---------5-------------0-------|
-------4---4---------5---------| (X 2)
-----2-------2-----5-----------|
---2-----------2-3-------------|
-0-----------------------------|

Delay off for the next part:

-------------------------0-------------------------------0--------------|    ___
---------5-------------0---0-------------5-------------3---3-----    ---|
-------4---4---------5-------5---------4---4---------3-------3---    ---|
-----2-------2-----5-----------5-----2-------2-----3-----------3-    ---|
---2-----------2-3-----------------2-----------2-1---------------    ---|
-0-------------------------------0-------------------------------    ---|
                                                                      |
                                                                    (X 2)
-------------------------0---------------0---------------0-------    ----|
---------5-------------0---0---------------0---------------0-----    ----|
-------4---4---------5-------5---------4-----4---------2-----2---    ----|
-----2-------2-----5-----------5-----5---------5-----3---------3-    ----|
---2-----------2-3-----------------5---------------3-------------    ----|
-0-------------------------------3---------------1---------------    ~~~-|


---------3---------------3---------------3-------6-----5-----3---|
-------3---3-----------3---3-----------3---3-------3-----3-----3-|
-----5-------5-------5-------5-------3-------3-------3-----3-----|  (X 2)
---5-----------5---5-----------5---3-----------3-----------------|
-3---------------3---------------3-------------------------------|
-----------------------------------------------------------------|


-5-------5---------------5---------------5-------8-----7-----5---|
-------5---5-----------5---5-----------5---5-------5-----5-----5-|
-----7-------7-------7-------7-------5-------5-------5-----5-----|
---7-----------7---7-----------7---5-----------5-----------------|
-5---------------5---------------5-------------------------------|
-----------------------------------------------------------------|

                                                {strum chord from bottom to
---------5---------------5---------------5-------8----|  top and let ring...}
-------5---5-----------5---5-----------5---5-----5----|
-----7-------7-------7-------7-------7-------7---5----|
---7-----------7---7-----------7---7-----------7-5----|
-5---------------5---------------5---------------5----|
------------------------------------------------------|


{--4x--}{--4x-------------------------------------------------------------------|
-0-------0-------     0---------------0---------------0-------------------0-----|
---0-------0----- <   --0-----------0---0-----------0---0---------------0---0---|
-----6-------5---(X 2)----2-------2-------2-------2-------2-----------2-------2-|
-------6-------5- <   ------2---2-----------2---2-----------2-------2-----------|
-----------------     --------0---------------0---------------2-2-2-------------|
-----------------     ----------------------------------------------------------|


If
none of us            believes in war                        then
-----------------------------------------4-----------------------|
---------2------7-------5---------5--------5-----5-4-----4-5-----|
-----------2------4-------6---6------6-------6-------4-------6---|
------4------4------4-------7----------6-------6-------4-------6-|
----4-----------------------------4--------------4-6-----6-4-----|
-2--------------4-------5----------------------------------------|


can you tell me what the weapons for...
-------------------------------------------------------------------|
----------9-------10-----12-10-9-----7-----7-9-----9-7-----7-9-----|
--------9---9---9----9-----------9-----7-------9-------7-------9---|
------9-------9--------9-----------9-----7-------9-------7-------9-|
-5/7---------------------------------0-------7-------0-------7-----|
-------------------------------------------------------------------|

Listen to me..............
-------------------------------------------------------------|
-2-----2-0-------5-------3-----3-2-----2--------5------3-----|
---0-------0---0---0---0---0-------4------4---4---2------4---|
-----0-------0-------0-------0-------4------4-------4------4-|
---------------------------------2--------------2------2-----|
-3---------------3-------------------------------------------|


---------------------------------------------------------------|
-2-----2-0-------5-------3-----------2---2-----------2---2-----|
---0-------0---0---0---0---0---0-------4---4---4-------4---4---|
-----0-------0-------0-------0-----4---------4-----4---------4-|
---------------------------------2-----------------------------|
-3---------------3---------------------------------------------|

---------------------------------------------------------------|
-2-----2-0-------5-------3-----------2---2-----------2---2-----|
---0-------0---0---0---0---0---0-------4---4---4-------4---4---|
-----0-------0-------0-------0-----4---------4-----4---------4-|
---------------------------------2-----------------------------|
-3---------------3---------------------------------------------|


-------------------------------------------------0---------------|
-2-----2-0-------5-------3-------2-----2-0---------0-----3-------|
---0-------0---0---0---0---0---0---2-------2---2-----2-----2---2-|
-----0-------0-------0-------0-------2-------2---------2-----2---|
---------------------------------0-------------------------------|
-3---------------3-----------------------------------------------|

                                              {strum from bottom to top
-----------------------------------------------2-|  and let chord ring}
-2-----2-0-------5-------3-----------2---2-----2-|
---0-------0---0---0---0---0---0-------4---4---4-|
-----0-------0-------0-------0-----4---------4-4-|
---------------------------------2-------------2-|
-3---------------3-------------------------------|

---------0-5/7-|
-----0h1-------|
---------------|
---2-----------|
-0-------------|
---------------|

8.FOOL LIKE YOU

Don't Know

9.SHOT IN THE DARK

Intro 2 times
with Distortion
e[-----------18-18b20-18~~~~--18-20-18--22b-------------|
B[------18----------------------------------------------|
G[-15---------------------------------------------------|
D[------------------------------------------------------|
A[------------------------------------------------------|
E[------------------------------------------------------|

Intro part 2, 2 times
e[------------------------------------------------------|
B[------------------------------------------------------|
G[--------6-----5---6-5---------------------------------|
D[-xx-----6-----5---6-5---------------------------------|
A[-xx-----4-xxx-3---4-3---------------------------------|
E[----0-0---------------(4)-----------------------------|
    PM...

Verse
Clean
e[------------------------------------------------------|
B[-------1------1---------------------------------------|
G[-----3------3---3--------------3-------3--------------|
D[---3--------------3---3------4-------4---4------------|
A[-1--------1---------1------4-------4-------4----------|
E[-------------------------2-------2--------------------|

e[-------1------1-----------------------------------------|
B[------------1----------------4-------4------------------|
G[-----3----3-----3---------------------------------------|
D[---3--------------3--------4-------4---4----------------|
A[-1------1-----------1----4-------4-------4--------------|
E[-----------------------2-------2------------------------|

Pre-Chorus
Distortion
e[------------------------------------------------------|
B[------------------------------------------------------|
G[-5-----6-8----5-----6-8---6-5----6-5------------------|
D[-5-----6-8----5-----6-8---6-5----6-5------------------|
A[-3-----4-6----3-----4-6---4-3----4-3------------------|
E[------------------------------------------------------|

e[------------------------------------------------------|
B[------------------------------------------------------|
G[-5-----6-8----5-----6-8-------------------------------|
D[-5-----6-8----5-----6-8------3------------------------|
A[-3-----4-6----3-----4-6------3------------------------|
E[-----------------------------1------------------------|

Chorus
Distortion
e[------------------------------------------------------|
B[------------------------------------------------------|
G[-3-----------------6---5------------------------------|
D[-3-----------------6---5--6-(4)-----------------------|
A[-1-----------------4---3--6-(4)-----------------------|
E[--------------------------4-(2)-----------------------|

Intro Part 2

Verse

Chorus

Interlude
e[------------------------------------------------------|
B[------------------------------------------------------|
G[-6---13r11--6-10b11r10~~~-4---13r11--6-10b11r10~~~----|
D[-6------------------------4---------------------------|
A[-4------------------------2---------------------------|
E[------------------------------------------------------|

GUITAR SOLO
e[------------------------------------------------------|
B[-11p9-11~~~~-9b11-9-----------------------------------|
G[-------------------10p8---10p8---10p8----10~~~~~------|
D[-----------------------8p6----8p6----8p6--------------|
A[------------------------------------------------------|
E[------------------------------------------------------|

e[------------------------------------------------------|
B[------------------------------------------------------|
G[-10-8------------8------------------------------------|
D[------8-6----6-8---6br--------------------------------|
A[------------------------11p8-11p8----11-13-14---------|
E[------------------------------------------------------|

e[------------------------------------------------------|
B[-11----------13------14------16------18~~~~~----------|
G[------------------------------------------------------|
D[------------------------------------------------------|
A[------------------------------------------------------|
E[------------------------------------------------------|
  TR..............................
Comments