Ozzy Osbourne - The Ozzman Cometh Chords & Tabs

 

The Ozzman Cometh Chords & Tabs

Ozzy Osbourne Chords & Tabs

Version: 2 Type: Tab 0 ratings
1 star 2 stars 3 stars 4 stars 5 stars
comments

The Ozzman Cometh Tab

   
Band- Ozzy Osbourne
Album- The Ozzman Cometh

Song 1 Black Sabbath

Srandard Tuning
LEGEND: h- hammer on
        p- pullof
        ^- bend
       tr- trill
heres the intro that comes after all that rain
E---------------------------------------------------------------------------|
B---------------------------------------------------------------------------|
G---------------------------------------------------------------------------|
D---------5------------------------------------5----------------------------|
A----5---------4h5p4h5p4h5p4h5p4---------5-------------4tr------------------|
E----3-----------------------------------3----------------------------------|

Heres whats played during the verses
E----------------------------|
B----------------------------|
G----------------------------|
D----------5-----------------|  After each verse you play the intro
A-------------------4--------|
E---3------------------------|

heres the little thing that comes after youve played the two verses and the into after
the second verse where ozzy sings "IS THIS THE END MY FRIEND  SATANS COMIN ROUND THE
BEND...." and so on (PALM MUTE THIS SECTION!!!)

E---------------------------------|
B---------------------------------|
G---------------------------------|
D---------------------------------|
A-----------3-5-6-5-3---3-5-------|
E---3-3-3-6-----------6-----------|

here are the chords that are played right before the solo and underneath the solo...
the trick is at the beginning you let the notes ring out but while you are holding them
use a wah wah pedal and puch down and release qickly to give it that sound

E-------3--------------3----------------------------------------------------|
B-------3--------------3----------------------------------------------------|
G-------4--------------3----------------------------------------------------|
D-------5--------------3----------------------------------------------------|
A-------5--------------3----------------------------------------------------|
E-------3--------------3----------------------------------------------------|


This is the guitar solo that is played overtop of those chords
E--------------------------------------------3------------------------------|
B--------------------------------3---3----3--3--3---6---8-----10------------|
G-----------------------------3--5^--5^---5^----5^--8^--10^---12^-----------|
D---5p3----5----5--3----3--5------------------------------------------------|
A--------5------------------------------------------------------------------|
E---------------------------------------------------------------------------|

E-------15-------------------18^---18^---18p15-----18p15-----18^-15h18p15----|
B-----15---18^--18^--18^---15------------------18--------18---------------18-|
G--17^-----------------------------------------------------------------------|
D----------------------------------------------------------------------------|
A----------------------------------------------------------------------------|
E----------------------------------------------------------------------------|

E-----15-15------15----------------15------15------15------15------15-----15-|
B--18-------18^-----18-15--------15------15------15------15------15-----15---|
G----------------------------17^------17^-----17^-----17^-----17^----17^-----|
D----------------------------------------------------------------------------|
A----------------------------------------------------------------------------|
E----------------------------------------------------------------------------|

E-------15-------------15----------------------------18^--15h18p15-------18--|
B-----15-------------15-------15-18--18^-----18^-------------------18--------|
G--17^-----17^----17^------17^------------15------15-------------------------|
D----------------------------------------------------------------------------|
A----------------------------------------------------------------------------|
E----------------------------------------------------------------------------|

E--15h18-15-----18-15-----18p15h18p15-18p15h18p15-18p15h18p15-18p15h18p15---|
B-----------18--------18----------------------------------------------------|
G---------------------------------------------------------------------------|
D---------------------------------------------------------------------------|
A---------------------------------------------------------------------------|
E---------------------------------------------------------------------------|

E--18^--18^--18-15----------15-15----------------------15-------------------|
B------------------18---18^--------18-15-------------15----18-15------------|
G----------------------------------------17-15tr--17^------------17---------|
D---------------------------------------------------------------------------|
A---------------------------------------------------------------------------|
E---------------------------------------------------------------------------|

E-------------------------------15------15------15-------------15/----------|
B-----------------------------15------15------15-----18^--18^---------------|
G--15------------------15--17^-----17^-----17^------------------------------|
D------17p15h17--15h17------------------------------------------------------|
A---------------------------------------------------------------------------|
E---------------------------------------------------------------------------|

this is after the solo do the wah wah pedal thing i explained earlier in the tab for
the chords a couple time

E-----3----------3----------------------------------------------------------|
B-----3----------3----------------------------------------------------------|
G-----4----------3----------------------------------------------------------|
D-----5----------3----------------------------------------------------------|
A-----5----------3----------------------------------------------------------|
E-----3----------3----------------------------------------------------------|

after hitting those chords with the wah wah a couple of times you do this pattern for
them  (dont let any of these chords ring out)

E-----3-----3-3-3--3----3-3-3--3-----3-3-3--3-----3-3-3--|  play this
B-----3-----3-3-3--3----3-3-3--3-----3-3-3--3-----3-3-3--|  progression
G-----4-----4-4-4--4----4-4-4--3-----3-3-3--3-----3-3-3--|  twice
D-----5-----5-5-5--5----5-5-4--3-----3-3-3--3-----3-3-3--|
A-----5-----5-5-5--5----5-5-4--3-----3-3-3--3-----3-3-3--|
E-----3-----3-3-3--3----3-3-3--3-----3-3-3--3-----3-3-3--|

heres the very end of the song
(dont let any of these chords ring out
E----3-----3-3-3--3---------------------------------------------------------|
B----3-----3-3-3--3---------------------------------------------------------|
G----4-----4-4-4--4---------------------------------------------------------|
D----5-----5-5-5--5---------------------------------------------------------|
A----5-----5-5-5--5---------------------------------------------------------|
E----3-----3-3-3--3---------------------------------------------------------|

Song 2  War Pigs

|-------------------------||--------------||----------------|
|-------------------------||--------------||----------------|
|-(7)/9--------7/9-9\-----||--------------||----------------|
|-(7)/9--------7/9-9\-----||--------------||----------------|
|-(5)/7--------5/7-7\5~~--||-11-11h12-11--||-11-11h12-12/14-|
|-------------------------||-0--0-----0---||-0--0-----0-----|

verse             1          2          3
|----------||---------||--------||--12-------|
|----------||---------||--------||--12-------|
|----------||-4p2p0---||--------||--12-------|
|-12--14---||-------2-||-0202020||-----------|
|-12--14---||---------||--------||-----------|
|-10--12---||---------||--------||-----------|

|-----------------------||-----||--------------------------|
|-----------------------||-----||--------------------------|
|-----------------------||-12~-||--------------------------|
|-12-14---17-16-15---14-||-----||----121412141214----------|
|-12-14---17-16-15---14-||-----||-/14----------------------|
|-10-12---15-14-13---12-||-----||--------------------------|

|---------12\-------------------||----------------------------|
|---------12\-------------------||----------------------------|
|---------12\-------------------||----------------------------|
|-------------------------------||---------2p0---------2p0----|
|-------------------------------||----------------------------|
|-0-0-0-0------0--0-0-3^~~~-----||-0-0-0-0-----0--0--0-----3~-|

1st solo:
|------------------------------------------------------------------------------------|
|------------------------------------------------------------------------------------|
|------------------------------------------------------------------------------------|
|------------------------------------------------------------------------------------|
|11h12---12p11---11\7---7\5---5/7----7p5---5h7---7/11---11/12---12p11---11h12--12/14-|
|------0-------0------0-----0------------0-----0------0-------0-------0-------0------|


|----------------------------------------------12-----12-----------|
|--------------------------------------------12-----12--15^-15^----|
|-------------------------12----------12--14^----14^---------------|
|------12h14-14------12h14-------12h14-----------------------------|
|-12h14---------12h14-------12h14----------------------------------|
|------------------------------------------------------------------|


|-12-----------------|--------------------|----------12----15^--|
|---15-12---12-15p12-|----15p12---15p12---|-15p12--12--15^------|
|--------14^---------|---------14------14-|------14-------------|
|--------------------|--------------------|---------------------|
|--------------------|--------------------|---------------------|
|--------------------|--------------------|---------------------|


|-15^-15^-15^-12----|-12--12-------------|----------------------------|
|----------------15-|-------15-15p12--12-|-15p12----------------------|
|-------------------|---------------14---|------14-14p12--12----------|
|-------------------|--------------------|--------------14---14---14--|
|-------------------|--------------------|----------------------------|
|-------------------|--------------------|----------------------------|


|----------------------------|-----------|---------------------|
|-7--7--7--7-----------------|-----------|---------------------|
|-9^-9^-9^-9^-^9--7---7h9~~--|-----7h9~~-|-----7h9~~-9---7-9---|
|-------------------9--------|-7h9-------|-7h9-----------------|
|----------------------------|-----------|---------------------|
|----------------------------|-----------|---------------------|


|-----------------------------|----------------|-----------|
|-----------------------------|-7--7--7--7-----|-----------|
|-11r9p7h9p7h9-( x 10 )--11p9-|-9^-9^-9^-9^-^9-|-9p7-7h9~~-|
|-----------------------------|----------------|-----------|
|-----------------------------|----------------|-----------|
|-----------------------------|----------------|-----------|

|---------------------------------------------------------------|
|---------------------------------------------------------------|
|---------------------------------------(1/2 step)--------------|
|---------------------------------------------------------------|
|11h12---12p11---11\7---7\5---5/7-----6^-6^-6^-6^--( x 2 )------|
|------0-------0------0-----0-----------------------------------|


2nd solo:
|--------------------------------------------------------|
|--------------------------------------------------------|
|-------7-------7---7--------7-------7---7--9-----7------|
|---9-------9-----9------9-------9-----9----9--9--7------|
|-7---7---7---7--------7---7---7---7--------7--9--5------|
|----------------------------------------------7---------|


|-------------------------------------------------------|
|-------------------------------------------------------|
|-------7-------7---7--9--12--9-------------------------|
|---9-------9-----9----9--12--9-------------------------|
|-7---7---7---7--------7--10--7-------------------------|
|-------------------------------------------------------|


|---------------------|---------------------|---------------------|--|
|---------------------|---------------------|---------------------|--|
|-------7-------7---7-|-------5-------5---5-|-------3-------3---3-|--|
|---9-------9-----9---|---7-------7-----7---|---5-------5-----5---|--|
|-7---7---7---7-------|-5---5---5---5-------|-3---3---3---3-------|--|
|---------------------|---------------------|---------------------|--|


|--------------|------------------------------------------------------|
|--------------|------------------------------------------------------|
|--------------|------------------------------------------------------|
|-9---10-10-9--|-------4-5-4h5-4---4-----------4-5-7-7---9-9----------|
|-9---10-10-9--|--5h7----------------5---5-5h7------------------------|
|-7----8--8-7--|--0--------------------7---0--------------------------|


|-------------------------------|----------|----------------|
|-------------------------------|----------|-------( x 8 )--|
|-4/7-7h9-9---7h9-9^-9^-9^9-7h9-|--7---7-9-|-11r9p7h9p7h9---|
|-------------------------------|----9-----|----------------|
|-------------------------------|----------|----------------|
|-------------------------------|----------|----------------|


|--------------|--------------|---------------|----------------------|
|-7--7--7--7---|--------------|---------------|----------------------|
|-9^-9^-9^-9^9-|-7---7h9--7p9~|--7h9~~--------|-7h9~~---------7h9~~--|
|--------------|---9----------|---------7h9~~-|---------7h9~~--------|
|--------------|--------------|---------------|----------------------|
|--------------|--------------|---------------|----------------------|

|----------|---------------|---------------------|----------------|
|----------|---------------|---------------------|----------------|
|-----7h9--|------7h9--7-9-|-11r9p7h9p7----------|----------------|
|-7h9------|--7h9----------|------------9p7-7----|----------------|
|----------|---------------|------------------10-|-10-9-7-9-1097-9|
|----------|---------------|---------------------|----------------|


|------------------------------|--------------------------|
|------------------------------|--------------------------|
|------------------------------|--------------------------|
|------------------------------|--------7-----------------|
|-10p9p7--9--10p9p7--9--10p9p7-|-9--10------9h10p9p7--7---|
|------------------------------|--------------------------|

|------------------------------------------------------|
|------------------------------------------------------|
|------------------------------------------------------|
|-------4-5-4h5-4---4-----------4-5-7-7---9-9----------|
|--5h7----------------5---5-5h7------------------------|
|--0--------------------7---0--------------------------|

|--------------------------------------------------------|
|--------------------------------------------------------|
|-------7-------7---7--------7-------7---7---------------|
|---9-------9-----9------9-------9-----9-----------------|
|-7---7---7---7--------7---7---7---7------accelerate...--|
|--------------------------------------------------------|


Song 3 Goodbye to Romance

Intro
  Q=74
               (D)     (F#m/C)   (Bm)    (A7)
 4/4
  Gtr I
|---------0-||-2h3-2-0-2-0---0-|---0-----------0-||
|-------3---||-------------3---|-3---2---2---3---||
|-----------||-----------------|-------4---0-----||
|-----------||-----------------|-----------------||
|-----------||-----------------|-----------------||
|-----------||-----------------|-----------------||


   Verses 1 & 2
    Dmaj7             F#m    F#m7    G6                      A
||-------5-(5)--^5--|-^-9----12----|-0-----0-(0)-----------|------------------|
||o-7--7--------^7--|-^10----10----|-3---3-------3-0h2h3S5-|-7--5--3--2h3h5---|
||--6-----------^6--|-^11-----9----|-0-0-----------0h2h4S6-|-7--6--4----------|
||--7--7--------^7--|-^11----11----|-0---------------------|------------------|
||o-5-----------^5--|-^-9-----9----|-----------------------|------------------|
||------------------|--------------|-3---------------------|------------------|


  Dmaj7                F#m    F#m7     G6                      A
|------5-(5)-9-5-----|-^-9----^12----|-0-----0-(0)-----------|-------------||
|-7--7-----------7---|-^10----^10----|-3---3-------3-0h2h3S5-|-7--5--3--5--||
|-6----------------6-|-^11----^-9----|-0-0-----------0h2h4S6-|-7--6--4--6--||
|-7--7---------------|-^11----^11----|-0---------------------|-------------||
|-5------------------|-^-9----^-9----|-----------------------|-------------||
|--------------------|---------------|-3---------------------|-------------||


 Chorus
  1.
  D         F#m/C#      Bm        Bm/A
|---------------5h=7--|-7-----7h9-9h10-9-(9)-|
|-7---3h5p3-----7-(7)-|-7-----7---7-------8--|
|-7-2---------2-------|----------------------|
|-0-------------------|---(4)----------------|
|-----------4---------|-2-(4)-----0----------|
|---------------------|----------------------|


  G6                     A7sus4     A7
|--------5--7-(7)--5-7-|-10-(10)-10-9-9-------------|
|-------(3)------------|--8--(8)--8-8-8-------------|
|----7-----------------|--9--(9)--9-9-9-------------|
|---(0)----------------|--7--(7)--7-7-7-------4h7---|
|----------------------|------------------4h5-5h7---|
|-3--------------------|------------------5h7-------|


  D         F#m/C#    Bm       Bm/A
|---------------5-7-|-----9-10-9-----9---------|
|-----3h5p3-----7---|------------------7-------|
|---2---------2-----|---4----------------7-----|
|-4-----------------|---4--------(4)-------(9)-|
|-5---------4-------|-2--------0---------------|
|-------------------|--------------------------|


  G6                     A7sus4    A7
|--------5--7-(7)--5-7-|-10-10-----9-(9)-----0---||
|-------(3)------------|--8----8---8-(8)--/3-----||
|-7--------------------|--9------9-9-(9)---------||
|---(0)----------------|--7--------7-(7)---------||
|----------------------|-------------------------||
|-3--------------------|-------------------------||


 Interlude
  D       F#m/C#    Bm          A7
|-2-5-3p2-2p0---0-|---0--------------------||
|-------------3---|-3---2h3p2---2---3h5S7-o||
|-----------------|-----------4---0--------||
|-----------------|------------------------||
|-----------------|-----------------------o||
|-----------------|------------------------||


 2.
  D         F#m/C#   Bm          Bm/A
|------------------|-------2-----------0-----|
|-7---3h5p3----3p2-|-----3---3-------3---3---|
|-7-2--------------|---4-------4---4-------4-|
|-0----------------|-------------------------|
|-----------4------|-2-----------0-----------|
|------------------|-------------------------|


  G6                     A7sus4  A7               D         F#m/C#
|-----------0-(0)----0-|------------------------|----------------------|
|---------3--------3---|-3-3-(3)-2-(2)----------|-----3h5p3-----2h3p2--|
|-------0--------------|-0-0-(0)-0-(0)----------|-------------2--------|
|-----0----------------|-2-2-(2)-2-(2)------4-7p|=4-2------------------|
|---2------------------|-0-0-(0)-0-(0)--4-5-5-7p|=5---------4----------|
|-3--------------------|----------------5-7-----|----------------------|


  Bm      Bm/A          G6                     A7sus4
|-------0-------0-----|-----------0-(0)----0-|------------------0-||
|-----3-------3---3---|---------3--------3---|-3-----3-2-(2)--3---||
|---4-------4-------4-|-------0--------------|-0---0---0-(0)------||
|---------------------|-----0----------------|---2-----2-(2)------||
|-2-------0-----------|---2------------------|-0-------0-(0)------||
|---------------------|-3--------------------|--------------------||


 Interlude                                        Bridge
  D           F#m/C#    Bm          A7             Em7
|-2-3-2h3p2---2p0---0-|---0---------------5-7-5-||-7-----7-10-(10)---9-10-|
|-----------5-----3---|-3---2h3p2---2-(2)-5-7-5-||-8-----8--8--(8)--10-10-|
|---------------------|-----------4----0--------||-7-----7--7--(7)--------|
|---------------------|-------------------------||-9----------------------|
|---------------------|-------------------------||-7-(7)------------------|
|---------------------|-------------------------||------------------------|


  A              A7       D
|--9-------7-(7)---9-10-|-10h12p10------------------------------------------------|
|-10-----8--------------|-10-------12-(12)-----------------------10h12p10--12--11-|
|--9-(9)----------------|-11---------------9--11--(11)-11h12p11-(11)------(12)----|
|----------------7------|--------------------(12)------12-------------------------|
|-----------------------|---------------------------------------------------------|
|-----------------------|---------------------------------------------------------|
|
| Gtr II
|-----------------------|---------------------------------------------------------|
|-----------------------|-------------------------------------7---7h=8p=7---------|
|-----------------------|--7h=9p=7----------------------------7---7h=9p=7---------|
|-----------------------|--7--------9--(9)--------------7h=9----------------9-----|
|-----------------------|------------------7---9---(9)--------------------------9-|
|-----------------------|---------------------------------------------------------|


|-10-12--------------------------------|
|-10----10-12-(12)-------------10-8-7--|
|-11---------------9--11--(11)---------|
|--------------------(12)-(12)---------|
|--------------------------------------|
|--------------------------------------|
|
|--------------------------------------|
|--------------------------------------|
|--7--9------------------------11-9-7--|
|--7-----7--9--(9)---------------------|
|------------------7---9---(9)---------|
|--------------------------------------|


  Em7                    A7
|--------10-(10)--9-10-|--9-----7-(7)-----9-10-|
|--8---8----------8----|-10---8---------8------|
|-(9)------------------|----9---------9--------|
|----------------------|-----------------------|
|----------------------|-----------------------|
|----------------------|-----------------------|


  D
|-10h12p10------------------------------------------------|
|-10-------12-(12)-----------------------10h12p10--12--11-|
|-11---------------9--11--(11)-11h12p11-(11)------(12)----|
|--------------------(12)------12-------------------------|
|---------------------------------------------------------|
|---------------------------------------------------------|
|
| Gtr II
|---------------------------------------------------------|
|-------------------------------------7---7h=8p=7---------|
|--7h=9p=7----------------------------7---7h=9p=7---------|
|--7--------9--(9)--------------7h=9----------------9-----|
|------------------7---9---(9)--------------------------9-|
|---------------------------------------------------------|


                           Gtr III
                   ~~~~~~~
|----------------------------------||
|---------8-(8)-8S10-(10)----------||
|-7h9p7---9-(9)-9S11-(11)------7h9-||
|-7-----9------------------7h9-----||
|----------------------------------||
|----------------------------------||
|
|----------------------------------||
|----------------------------------||
|----------------------------------||
|----------------------------------||
|----------------------------------||
|----------------------------------||


 Guitar Solo
  D           F#m/C#
  ~~                 ~~~~~~~
|-------------15p14-12-(12)----|
|------------------------------|
|-7S==11---14------------------|
|------------------------------|
|------------------------------|
|------------------------------|
|
| Gtr II
|------------------------------|
|------3h5p=3------------2h3p2-|
|--------------------2---------|
|-4-2--------------------------|
|-5------------4---------------|
|------------------------------|


  Bm                   Bm/A
                                    ~~~~~~~~~
|-14h15p14----14----------------14---------------14-15--|
|----------17----17-15-14-17b19----17---(17)------------|
|-------------------------------------------------------|
|-------------------------------------------------------|
|-------------------------------------------------------|
|-------------------------------------------------------|
|
|--------------2--------------------------0-------------|
|-----------3-----3-------------------3------3----------|
|--------4-----------4--------------4----------4--------|
|-------------------------------------------------------|
|--2-----------------------0----------------------------|
|-------------------------------------------------------|


  G
|17p15p14----14-------------------------------14-15p=14h15p14-17p15h17p15-19p17h19p17-21p19h21p19|
|---------17----17p15p14h15----------14h15h17----------------------------------------------------|
|---------------------------16p14h16-------------------------------------------------------------|
|------------------------------------------------------------------------------------------------|
|------------------------------------------------------------------------------------------------|
|------------------------------------------------------------------------------------------------|
|
|-------------------------------------0----------(0)-----------------------------------0---------|
|-------------------------3------------------------------------------------3---------------------|
|-------------------0----------------------------------------------------------------------------|
|-------------0----------------------------------------------------------------------------------|
|-------2----------------------------------------------------------------------------------------|
|-3----------------------------------------------------------------------------------------------|


  A7sus4                           A7
|-21b23==(21)r(21)p19-21p=19----19-21b22==(21)r(21)-(21)-------|
|----------------------------22--------------------------------|
|--------------------------------------------------------------|
|--------------------------------------------------------------|
|--------------------------------------------------------------|
|--------------------------------------------------------------|
|
|--------------------------------------------------------------|
|--3----------------3-(3)-----2----(2)-------------------------|
|--0----------------0-(0)-----0----(0)-------------------------|
|--2----------------2-(2)-----2----(2)---------------------4-7p|
|--0----------------0-(0)-----0----(0)----------------4--5-5-7p|
|-----------------------------------------------------5--7-----|


  D                 F#m/C#              Bm                             Bm/A
                           ~~~~~~                                              ~~~~~~~~
|--------7------------------------7-9-|-(9)b10r(9)p7----7----------------------------------|
|------7---10-7-8-7------7------------|--------------10---10-8-7---7-----------7---(7)-----|
|-9b11--------------9b11---9-(9)------|--------------------------9---9-7-6-7-9-------------|
|-------------------------------------|----------------------------------------------------|
|-------------------------------------|----------------------------------------------------|
|-------------------------------------|----------------------------------------------------|
|
|-------------------------------------|----------------------------0----------------0------|
|-----------3h5p3-------------2h3p2---|----------------------3-------------------3-----3---|
|--------------------------2----------|---------------4------------------------4---------4-|
|-4----2------------------------------|----------------------------------------------------|
|-5-----------------4-----------------|--2-------------------------------0-----------------|
|-------------------------------------|----------------------------------------------------|


  G
|-9-10-7-9----7------------------------|
|----------10---8-10--7--8---7---------|
|--------------------------9---7-9-6-7-|
|--------------------------------------|
|--------------------------------------|
|--------------------------------------|
|
| Gtr I
|---------------0----(0)-----------0---|
|-----------3------------------3-------|
|--------0-----------------------------|
|------0-------------------------------|
|----2---------------------------------|
|-3------------------------------------|


                                                      Chorus
  A7sus4    A7                                         D          F#m/C#
  ~~~~~~~~                                              ~~
|------------------------------14-15---17p15p14------|----------------------||
|---------------------15h17-19--------------------17-|-19-------------------||
|-9---11----14h=16-18--------------------------------|-19-------------------||
|----------------------------------------------------|----------------------||
|----------------------------------------------------|----------------------||
|----------------------------------------------------|----------------------||
|
|----------------------------------------------------|----------------------||
|-3-3-(3)-2-(2)--------------------------------------|------3h5p3-----2h3p2-||
|-0-0-(0)-0-(0)--------------------------------------|--------------2-------||
|-2-2-(2)-2-(2)----------------------------4----7p===|==4-2-----------------||
|-0-0-(0)-0-(0)-----------------4----5-----5----7p===|==5---------4---------||
|-------------------------------5----7---------------|----------------------||


  Bm          Bm/A          G6                     A7sus4  A7
  Gtr I
|-------2-----------0-----|-----------0-(0)----0-|------------------------|
|-----3---3-------3---3---|---------3--------3---|-3-3-(3)-2-(2)----------|
|---4-------4---4-------4-|-------0--------------|-0-0-(0)-0-(0)----------|
|-------------------------|-----0----------------|-2-2-(2)-2-(2)------4-7-|
|-2-----------0-----------|---2------------------|-0-0-(0)-0-(0)--4-5-5-7-|
|-------------------------|-3--------------------|----------------5-7-----|


  D         F#m/C#      Bm          Bm/A          G6
|---------------------|-------2-----------0-----|-----------0-(0)----0-|
|-----3h5p3-----2h3p2-|-----3---3-------3---3---|---------3--------3---|
|-------------2-------|---4-------4---4-------4-|-------0--------------|
|-4-2-----------------|-------------------------|-----0----------------|
|-5---------4---------|-2-----------0-----------|---2------------------|
|---------------------|-------------------------|-3--------------------|


  A7sus4  A7                  D         F#m/C#      Bm          Bm/A
|--------------------------||---------------------|-------2-----------0-----|
|-3-3-(3)-2-(2)------------||-----3h5p3-----2h3p2-|-----3---3-------3---3---|
|-0-0-(0)-0-(0)------------||-------------2-------|---4-------4---4-------4-|
|-2-2-(2)-2-(2)--------4-7-||-4-2-----------------|-------------------------|
|-0-0-(0)-0-(0)---4--5-5-7-||-5---------4---------|-2-----------0-----------|
|-----------------5--7-----||---------------------|-------------------------|
|
| Gtr III
|--------------------------||---------------------|-------------------------|
|--------------------------||---------------------|-------------------------|
|--------------------------||---------------------|-------------------------|
|--------------------------||---------------------|-------------------------|
|--------------------------||---------------------|-2-----------------------|
|----------------17\-------||-5---------4---------|-------------3-----5-----|


  G6                      A7sus4   A7
|-----------0-(0)-----0-|---------------------------------||
|---------3---------3---|-3-3-(3)--2---(2)----------------||
|-------0---------------|-0-0-(0)--0---(0)----------------||
|-----0-----------------|-2-2-(2)--2---(2)-----------4--7-||
|---2-------------------|-0-0-(0)--0---(0)-------4-5-5--7-||
|-3---------------------|------------------------5-7------||
|
|-----------------------|---------------------------------||
|-----------------------|-----------------------10p7------||
|-----------------------|-------------------9p7------9h11-||
|-----------------------|---------------9p7---------------||
|---------------------2-|----------9p7--------------------||
|-3------------3--5-----|-5----7p5------------------------||


  D         F#m/C#      Bm           Bm/A
|---------------------|--------2-----------0--------|
|-----3h5p3-----2h3p2-|------3---3-------3---3------|
|-------------2-------|----4-------4---4--------4---|
|-4-2-----------------|-----------------------------|
|-5---------4---------|--2-----------0--------------|
|---------------------|-----------------------------|
|
|---------------------|-----------------------------|
|---------------------|-----------------------------|
|-7---------9---------|-11-----------9---------11S9p|
|---------------------|-----------------------------|
|---------------------|-----------------------------|
|---------------------|-----------------------------|


  G6
|-----------0-(0)-------0----|
|---------3----------3-------|
|-------0--------------------|
|-----0----------------------|
|---2------------------------|
|-3--------------------------|
|
|-------------10--12---12S14-|
|----------------------------|
|-7------------7---9----9S11-|
|----------------------------|
|----------------------------|
|----------------------------|


  A7sus4   A7
|-----------------------------------------|
|--3-3-(3)-2-(2)--------------------------|
|--0-0-(0)-0-(0)--------------------------|
|--2-2-(2)-2-(2)------------------4---7---|
|--0-0-(0)-0-(0)----------4---5---5---7---|
|-------------------------5---7-----------|
|
|-12--------------------------------------|
|-----------------------------------------|
|--9----------9p7p6-7p6p4-6p4-------------|
|-------------------------------7p5p4-----|
|---------------------------------------7-|
|-----------------------------------------|


  D         F#m/C#      Bm          Bm/A
|---------------------|-------2-----------0------|
|-----3h5p3-----2h3p2-|-----3---3-------3---3----|
|-------------2-------|---4-------4---4-------4--|
|-4-2-----------------|--------------------------|
|-5---------4---------|-2-----------0------------|
|---------------------|--------------------------|
|
|---------------------|--------------------------|
|---------------------|--------------------------|
|---------------------|--------------------------|
|---------------------|--------------------------|
|-5---------4---------|-2------------------------|
|---------------------|-------------5------------|


  G6                     A7sus4  A7
  Gtr I
|-----------0-(0)----0-|------------------------|
|---------3--------3---|-3-3-(3)-2-(2)----------|
|-------0--------------|-0-0-(0)-0-(0)----------|
|-----0----------------|-2-2-(2)-2-(2)------4-7-|
|---2------------------|-0-0-(0)-0-(0)--4-5-5-7-|
|-3--------------------|----------------5-7-----|


  D         F#m/C#      Bm          Bm/A
|---------------------|-------2-----------0------|
|-----3h5p3-----2h3p2-|-----3---3-------3---3----|
|-------------2-------|---4-------4---4-------4--|
|-4-2-----------------|--------------------------|
|-5---------4---------|-2-----------0------------|
|---------------------|--------------------------|


  G6                     A7sus4  A7
|-----------0-(0)----0-|------------------------|
|---------3--------3---|-3-3-(3)-2-(2)----------|
|-------0--------------|-0-0-(0)-0-(0)----------|
|-----0----------------|-2-2-(2)-2-(2)------4-7-|
|---2------------------|-0-0-(0)-0-(0)--4-5-5-7-|
|-3--------------------|----------------5-7-----|


  D         F#m/C#      Bm          Bm/A
|---------------------|-------2-----------0------|
|-----3h5p3-----2h3p2-|-----3---3-------3---3----|
|-------------2-------|---4-------4---4-------4--|
|-4-2-----------------|--------------------------|
|-5---------4---------|-2-----------0------------|
|---------------------|--------------------------|


  G6                     A7sus4  A7
|-----------0-(0)----0-|------------------------|
|---------3--------3---|-3-3-(3)-2-(2)----------|
|-------0--------------|-0-0-(0)-0-(0)----------|
|-----0----------------|-2-2-(2)-2-(2)------4-7-|
|---2------------------|-0-0-(0)-0-(0)--4-5-5-7-|
|-3--------------------|----------------5-7-----|


  D         F#m/C#      Bm          Bm/A
|---------------------|-------2-----------0------|
|-----3h5p3-----2h3p2-|-----3---3-------3---3----|
|-------------2-------|---4-------4---4-------4--|
|-4-2-----------------|--------------------------|
|-5---------4---------|-2-----------0------------|
|---------------------|--------------------------|


  G6                     A7sus4  A7
|-----------0-(0)----0-|------------------------*|
|---------3--------3---|-3-3-(3)-2-(2)----------*|
|-------0--------------|-0-0-(0)-0-(0)----------*|
|-----0----------------|-2-2-(2)-2-(2)------4-7-*|
|---2------------------|-0-0-(0)-0-(0)--4-5-5-7-*|
|-3--------------------|----------------5-7-----*|

Song 4 Crazy Train

Standard Tuning

Bass Intro (Can be played on an Electric guitar with power chords [or not] if desired)
Repeat 2 times

G  ---------------------------------------------------------------------------|
D  ---------------------------------------------------------------------------|
A  ------00---------------------55--------------------00--------------55--77--|
E  22---------00---22----------------00---22---------------00---22------------|


Guitar Intro
   PIck Slide down the neck                      Repeat this section Three times
e  X\---X\---------------------|-------------------------------------------------|
B  X\---X\-------X\-----X\-----|-------------------------------------------------|
G  --------------X\-----X\-----|-------------------------------------------------|
D  ----------------------------|-------------------------------------------------|
A  ----------------------------|----------4-------5-------4-------2--------------|
E  ----------------------------|-----22-------2-------2-------2-------5---4---5--|
                                     mm       m       m       m       m   m   m
and then continue      At the end of this section, I add in what is labeled in
                       parentheses, and i believe Randy used to play this live
e  -----------------|-----------------------------------------------------------|
B  -----------------|-----------------------------------------------------------|
G  -----------------|-----------------------------------------------------------|
D  -----------------|----------------------------------7-------9----------------|
A  2----------------|----------4-------5-------4-------5-------7------(12\)-----|
E  ----5---4---0----|-----22-------2-------2-------2------------------(12\)-----|
       m   m   m          mm       m       m
Now for Randy's famous Main Riff, the way I play it (and I advise a lot of alternate picking
for the A-string notes):

e  -----------------------------------------------------------------------------------------|
B  --------------5----------------5----------------3----------------------------------------|
G  --------------6----------------4----------------2----------------2------------2----------|
D  --------------7----------------6----------------4----------------2------------2----------|
A  0-----00----------000--------------000---------------000---------0------------0----------|
E  ---------------------------------------------------------------------------3~------------|
   m     mm          mmm              mmm               mmm                   m

e  -------------------------------------------------------------------------------------------|
B  --------------5----------------5----------------3------------------------pp----------------|
G  --------------6----------------4----------------2----------------2------420-----pp---------|
D  --------------7----------------6----------------4----------------2-------------420---------|pp
A  0-----00----------000--------------000---------------000---------0--------------------420--|
E  -------------------------------------------------------------------------------------------|
   m     mm          mmm              mmm               mmm

Now repeat the following Line Seven Times
e  ---------------------------------------------------------------------------------|
B  --------------5----------------5----------------3--------------------------------|
G  --------------6----------------4----------------2----------------2------------2--|
D  --------------7----------------6----------------4----------------2------------2--|
A  0-----00----------000--------------000---------------000---------0------------0--|
E  ---------------------------------------------------------------------------3~----|
   m     mm          mmm              mmm               mmm                   m

	And play into this One, where the Main Verse Riff ends:

e  -------5------------------------------------------------------|
B  -------5---------------------------p--------------------------|
G  ---------------------4------------70-------2------------------|
D  ---------------------2------------70-------2------------------|
A  00------------00------------00--------0----0--------(12\)-----|
E  ----------------------------------------------------(12\)-----|
   mm            mm            mm        m


e  ------------------------------------------------------------------------------------------|
B  ---------------[Slight tremolo bend after playing of both harmonics]----------------------|
G  -----------------------7*----------------------------------------------2------------------|
D  --------------7-----7*-------------------------7-----------------------2------------------|
A  4---4---4-----5------------------4---4---4-----5--------5-5---4---2----0---------2--------|
E  2---0---2------------------------2---0---2-----------7---------------------4--2--0---2--4-|
   m   m   m                        m   m   m           m  m m   m   m

Fill #1  (I love this fill, Personally, it is one of my all-time favorites)
To play this fill to Randy's speed, Alternate picking is essential.

e  --------2-----------------------------------------------------|
B  -----2-------5--2------2--------------------------------------|
G  4^-----------------5------5--4--2-----4--2--------------------|
D  -----------------------------------4--------4--2----------p---|
A  --------------------------------------------------4--2~-0-----|
E  --------------------------------------------------------------|

Sweet.

e  ------------------------------------------------------------------|
B  ------------------------------------------------------------------|
G  ------------------------------------------------------------------|
D  2-----------------------------------------------2-----------------|
A  0-----------2-----------4---4---4---------------0-----------2-----|
E  ----4---2---0---2---4---2---0---2---0---2---4-------4---2---0-----|
       m   m       m   m   m   m   m   m   m   m       m   m   m

e  --------------------------------------------|
B  --------------------------------------------|
G  --------------------------------------------|
D  --------------------------------7-----9-----|
A  --------4---4---4---------------5-----7-----|
E  2---4---2---0---2---0---2---4---------------|
   m   m   m   m   m   m   m   m

Then Main Verse Riff again, followed by:

e  -------------------------------------------------------------------------------------------|
B  ---------------[Slight tremolo bend after playing of both harmonics]-----------------------|
G  -----------------------7*----------------------------------------------2-------------------|
D  --------------7-----7*-------------------------7-----------------------2-------------------|
A  4---4---4-----5------------------4---4---4-----5--------5-5---4---2----0---------2---------|
E  2---0---2------------------------2---0---2-----------7---------------------4--2--0---2--4--|
   m   m   m                        m   m   m           m  m m   m   m

Fill #2
        p          p           p           p
e  ---12-9-------13-10-------14-11-------15-12-------16-13-------17-14--------18-15-----19\-|
B  10---------11----------12----------13----------14----------15-----------16---------------|
G  -----------------------------------------------------------------------------------------|
D  -----------------------------------------------------------------------------------------|
A  -----------------------------------------------------------------------------------------|
E  -----------------------------------------------------------------------------------------|


Again, Sweet.

e  ------------------------------------------------------------------|
B  ------------------------------------------------------------------|
G  ------------------------------------------------------------------|
D  2-----------------------------------------------2-----------------|
A  0-----------2-----------4---4---4---------------0-----------2-----|
E  ----4---2---0---2---4---2---0---2---0---2---4-------4---2---0-----|
       m   m       m   m   m   m   m   m   m   m       m   m   m


e  --------------------------------------------|
B  --------------------------------------------|
G  --------------------------------------------|
D  --------------------------------7-----9-----|
A  --------4---4---4---------------5-----7-----|
E  2---4---2---0---2---0---2---4---------------|
   m   m   m   m   m   m   m   m


Pre-Solo:  "Iknow that things are going wrong for me..."                   "Ye-ah"
e  ---------------------------------------------------------------------------------|
B  ---------------------------------------------------------------------------------|
G  ---------------------------------------------------------------------------------|
D  --------2-2-------------------7-7----9-9---11\-----2-2--------------------7---9--|
A  4-4\----0-0----2-2----4-4\----5-5----7-7----9\-----0-0----2-2----4-4\-----5---7--|
E  2-2\-----------0-0----2-2\--------------------------------0-0----2-2\------------|

-GUITAR SOLO-
------------------------------------------------------------------------------
-14^10^7^10^14^10^7^10^14^10^7^10^14^10^7^10^14^10^7^10^15^10^7^10^15^10^7^10^
------------------------------------------------------------------------------|
-t--p--p--h--t-p--p--h--t-p--p--h--t-p--p--h--t-p--p--h--t-p--p--h--t-p--p--h-|
------------------------------------------------------------------------------|
------------------------------------------------------------------------------|
							^
						      ^b:1^
-----------------------------------------------------^------^-----------------|
^15^10^7^10--9^12^9^12^9^12^9^12^9\7^10^7^10^7^10^7--|--10--|-----------------|
---------------------------------sl.-----------------9------9-----------------|
--t-p--p--h-----h-p--h-p--h-p--h-p----h-p--h-p--h-p---------------------------|
------------------------------------------------------------------------------|
------------------------------------------------------------------------------|
	     b:1                b:1
	      ^                  ^
-17--16--14---|-----14--16--17--17------14--17^14-------14---------------------|
-------------17--------------------------------p---17------17--14--15^14-15^14-|
----------------------------------------------------------------------------p--|
-------------------------------------------------------------------------------|
-------------------------------------------------------------------------------|
-------------------------------------------------------------------------------|
			     ^
			   ^b:1^
-------------------------^-------^-----------------------14^17^14^17^14^17^14--|
-------------------------|--17---|-----------------14^17----h---p--h--p-h--p---|
17^14--16^14------------16------16^14--------14^16----h------------------------|
---p------p----16^14---------------p------------h------------------------------|
------------------p------------------------------------------------------------|
-------------------------------------------------------------------------------|


/16^19^16/17^21^17^21^17^21^17^21^17^21^17\16^19^16^19^16^19^16\14^17^14^17^--
sl---h-p sl-------------------------------------------------------------------|
------------------------------------------------------------------------------|
------------------------------------------------------------------------------|
------------------------------------------------------------------------------|
------------------------------------------------------------------------------|
		^
	      ^b:1^
^14^17^14---^--17---^---------------------------------------------------------|
-----------17------17-----17--14----------------------------------------------|
-----------------------------------16--14------14--------------14-------------|
-------------------------------------------16------16--14----------16--14-----|
-----------------------------------------------------------16--------------16-|
------------------------------------------------------------------------------|


------------------------------------------------------------14--17^16^14------|
---------------------------------------------------------17-------------------|
14--13^14^13----16-14^13-------16---------------14-16/18----------------------|
--------h--p-----------p----16------------14-16------sl-----------------------|
-------------------------------------14-16------------------------------------|
------------------------------------------------------------------------------|
	       b:1   b:1
		^     ^
19^17--19^17---19----19----|
----p------p---------------|
---------------------------|
---------------------------|
---------------------------|
---------------------------|

   Like in the beginning, play this lick three times before you continue.
e  -------------------------------------------------|
B  -------------------------------------------------|
G  -------------------------------------------------|
D  -------------------------------------------------|
A  ----------4-------5-------4-------2--------------|
E  -----22-------2-------2-------2-------5---4---5--|
        mm       m       m       m       m   m   m


e  -----------------|-----------------------------------------------------------|
B  -----------------|-----------------------------------------------------------|
G  -----------------|-----------------------------------------------------------|
D  -----------------|----------------------------------7-------9----------------|
A  2----------------|----------4-------5-------4-------5-------7------(12\)-----|
E  ----5---4---0----|-----22-------2-------2-------2------------------(12\)-----|
       m   m   m          mm       m       m


e  ------------------------------------------------------------------------------------------|
B  --------------5----------------5----------------3-----------------------------------------|
G  --------------6----------------4----------------2----------------2------------2-----------|
D  --------------7----------------6----------------4----------------2------------2-----------|
A  0-----00----------000--------------000---------------000---------0------------0-----------|
E  ---------------------------------------------------------------------------3~-------------|
   m     mm          mmm              mmm               mmm                   m

e  ------------------------------------------------------------------------------------------|
B  --------------5----------------5----------------3------------------------pp---------------|
G  --------------6----------------4----------------2----------------2------420-----pp--------|
D  --------------7----------------6----------------4----------------2-------------420-----pp-|
A  0-----00----------000--------------000---------------000---------0--------------------420-|
E  ------------------------------------------------------------------------------------------|
   m     mm          mmm              mmm               mmm

	Now repeat the following two lines until it switches...
e  ---------------------------------------------------------------------------------|
B  --------------5----------------5----------------3--------------------------------|
G  --------------6----------------4----------------2----------------2------------2--|
D  --------------7----------------6----------------4----------------2------------2--|
A  0-----00----------000--------------000---------------000---------0------------0--|
E  ---------------------------------------------------------------------------3~----|
   m     mm          mmm              mmm               mmm                   m

e  ------------------------------------------------------------------------------------------|
B  --------------5----------------5----------------3-----------------------------------------|
G  --------------6----------------4----------------2----------------2------------------------|
D  --------------7----------------6----------------4----------------2------------------------|
A  0-----00----------000--------------000---------------000---------0------------------------|
E  ---------------------------------------------------------------------------3~~~-----------|
   m     mm          mmm              mmm               mmm                   m

And play into this One, where the Main Verse Riff ends:

e  -------5------------------------------------------------------|
B  -------5---------------------------p--------------------------|
G  ---------------------4------------70-------2------------------|
D  ---------------------2------------70-------2------------------|
A  00------------00------------00--------0----0--------(12\)-----|
E  ----------------------------------------------------(12\)-----|
   mm            mm            mm        m

e  -----------------------------7*-----------------------------------------------------------|
B  --------------------------7*--------------------------------------------------------------|
G  -----------------------7*----------------------------------------------2------------------|
D  --------------7-----7*-------------------------7-----------------------2------------------|
A  4---4---4-----5------------------4---4---4-----5--------5-5---4---2----0---------2--------|
E  2---0---2------------------------2---0---2-----------7---------------------4--2--0---2--4-|
   m   m   m                        m   m   m           m  m m   m   m

For the third fill, I cannot figure out what he does in the studio
(although it is similar to fill #2)
And live he plays this for fill #3

e  -------14----------------------------------------------------|
B  ----14----17-14----14----------------------------------------|
G  16^-------------17-----17-16-14----16-14---------------------|
D  --------------------------------16-------16-14---------------|
A  ------------------------------------------------16-14~---0---|
E  -------------------------------------------------------------|

e  ------------------------------------------------------------------|
B  ------------------------------------------------------------------|
G  ------------------------------------------------------------------|
D  2-----------------------------------------------2-----------------|
A  0-----------2-----------4---4---4---------------0-----------2-----|
E  ----4---2---0---2---4---2---0---2---0---2---4-------4---2---0-----|
       m   m       m   m   m   m   m   m   m   m       m   m   m


e  --------------------------------------------|
B  --------------------------------------------|
G  --------------------------------------------|
D  --------------------------------7-----9-----|
A  --------4---4---4---------------5-----7-----|
E  2---4---2---0---2---0---2---4---------------|
   m   m   m   m   m   m   m   m

Then it ends fading out and repeating this riff:

e  ----------------------------------------------------------------------|
B  ----------------------------------------------------------------------|
G  ----------------------------------------------------------------------|
D  --------2-2-------------------7-7----9-9---11\-----2-2----------------|
A  4-4\----0-0----2-2----4-4\----5-5----7-7----9\-----0-0----2-2----4-4\-|
E  2-2\-----------0-0----2-2\--------------------------------0-0----2-2\-|


Song 5  Mr Crowley

 (Synth. arr. for gtr.)
 Dm                Am                  F               C
|-----------------|-------------------|---------------|---------------------|
|-----------------|-------------------|---------------|---------------------|
|-----------------|-2------------2--0-|-----0---2---4-|-5---0------5---4----|
|--0---2---3---5--|------2------------|-3-------------|---------------------|
|-----------------|----------0--------|---------------|---------3-----------|
|-----------------|-------------------|---------------|---------------------|

 Am              Em          Am A#  F    G  F  E  F  A
|---------------|-----------|-5--6--1-|--3--1--0--1-|-----------------------|
|-------------3-|-5---------|-5--6--1-|--3--1--0--1-|-----------------------|
|-2---4---5-----|-----4-----|-5--7--2-|--0--2--1--2-|-2---------------------|
|---------------|---------2-|-7--8--3-|--0--3--2--3-|----------3v(2)~-------|
|---------------|-----------|-7--8----|--------2----|-----------------------|
|---------------|-----------|-5--6--1-|--3--1--0--1-|-----------------------|

Verse 1

|-----------|----------|---------------------|------------|----------|-------|
|-----------|----------|---------------------|------------|----------|-------|
|-7---------|-7--------|-3--X-3~-------------|-3--X-3~----|-7--------|-7-----|
|-7---------|-7--------|-3--X-3~-------------|-3--X-3~----|-7--------|-7-----|
|-5---0-----|-5--------|-1--X-1~-1-1-3-1-0-0-|-1--X-1~-1/-|-5---0----|-5-----|
|--------1--|-----18\--|---------------------|------------|--------1-|----22\|

                                                  [- Fill 1 --]
|---------------------|-----------|---------------|-----------|--------------|
|---------------------|-----------|---------------|------5----|--------------|
|-3--X-3~-------------|-3--X-3~-3-|-5--3--5--3--5-|------5--7-|-7--5--7~-----|
|-3--X-3~-------------|-3--X-3~-3-|-5--3--5--3--5-|------5--7-|-7--5--7~-----|
|-1--X-1~-1-1-3-1-0-0-|-1--X-1~-1-|-3--3--3-----3-|-5h7--5--5-|-5--5--5~-----|
|---------------------|-----------|---------------|-----------|--------------|

[-- Fill 2 --------------------------------------------------------------------|
|--------------------|-------------|------------|-------------|----------------|
|-----------X--------|-------------|------------|-------------|----------------|
|-----5h7p5-7^(9)-5~-|-5--X--5---5-|-----5--X-5-|-3--3--3-----|----------------|
|-----5h7p5----------|-5--X--5---5-|-----5--X-5-|-3--3--3-----|----------------|
|-5h7----------------|-3--X--3-0-3-|-0-1-3--X-3-|-1--1--1-1p0-|----------------|
|--------------------|-------------|------------|-------------|-17\------------|

Verse 2

Repeat VERSE 1, but replace FILL 1 with FILL 3 and FILL 2 with FILL 4:

[-- Fill 3 -------] [-- Fill 4 --------------------|
|-----------------| |------------------------------|
|-----------------| |-3h4p3--3---------------------|
|-----------------| |------5--5-3h5p3\2--2---------|
|---------------7-| |------------------5--5-3-2----|
|-5h7p5h7p5h7p5-5-| |--------------------------5---|
|-----------------| |------------------------------|

Solo

|----------10----------------10----------------10----------------10-------10--|
|--------10---13p10--------10---13p10--------10---13p10--------10---13p10-----|
|-12^(14)-----------12^(14)-----------12^(14)-----------12^(14)---------------|
|-----------------------------------------------------------------------------|
|-----------------------------------------------------------------------------|
|-----------------------------------------------------------------------------|

|-13p10----10-----------------------------------------------------------------|
|-------13----13-10-13p10-----------------------------------------------------|
|-------------------------12-10-12p10----10--------------10-10-12-------------|
|-------------------------------------12---12-10-12p10h12---------------------|
|-----------------------------------------------------------------------------|
|-----------------------------------------------------------------------------|

|--------------------------10-13p12-10-15p13p12-16p15p13-18p16p15/20-20p18p17-|
|------------13-13-13p10-13---------------------------------------------------|
|-12p10-12/14-----------------------------------------------------------------|
|-----------------------------------------------------------------------------|
|-----------------------------------------------------------------------------|
|-----------------------------------------------------------------------------|

|-20^(22)---20^(22)v(18)---20~-----20p17h18-20p17h18p17--|
|--------------------------------------------------------|
|--------------------------------------------------------|
|--------------------------------------------------------|
|--------------------------------------------------------|
|--------------------------------------------------------|

|-17h18p17--17------17h18p17--17-------------------------------------------|
|---------20--18-20---------20--20p17h18p17---17---------------------------|
|-------------------------------------------19--19p17---17-----------------|
|----------------------------------------------------20---20p19p17---17----|
|-----------------------------------------------------------------20-------|
|--------------------------------------------------------------------------|

|-------------------------20^(22)--|
|----------------------------------|
|---------------------X------------|
|----------17~--------X------------|
|-19~----------19~----X------------|
|----------------------------------|

|-20p17h20p17h18p17-18p17----17-------------------------|
|-------------------------20---20p17-18p17h18p17h18p17--|
|-------------------------------------------------------|
|-------------------------------------------------------|
|-------------------------------------------------------|
|-------------------------------------------------------|

|------------20----20~\--|
|-20^(22)----------20~\--|
|------------------------|
|------------------------|
|------------------------|
|------------------------|

|-13p10--10-----13p10--10-----13p10-10-10-----13p10-10-10-------|
|------13--13p10-----13--13p10-----------13-10-----------13p10--|
|---------------------------------------------------------------|
|---------------------------------------------------------------|
|---------------------------------------------------------------|
|---------------------------------------------------------------|

|-13p10--10-----13-10--10-----13p10--10-----13p10--10-------|
|------13--13p10-----13--13p10-----13--13p10-----13--13p10--|
|-----------------------------------------------------------|
|-----------------------------------------------------------|
|-----------------------------------------------------------|
|-----------------------------------------------------------|

|-13p10--10------------------------------------------5--|
|------13--13p10-11p10--10-----------------------5h6----|
|---------------------12--12p9-10-9\7-9-7\5-7p5---------|
|----------------------------------------------7--------|
|-------------------------------------------------------|
|-------------------------------------------------------|

|---------------8-----------|-------------------------------|
|-8^(9)^(10)~~~~~~~~~v(9)---|-6------------6p5--------------|
|---------------------------|---7~--7~--7p5---7-5-----------|
|---------------------------|---------------------8p7p5-----|
|---------------------------|---------------------------8---|
|---------------------------|-------------------------------|

|---------------------------|-------------------------------|--------|
|---------------------------|-------------------------------|--------|
|---------------------------|-------------------------------|--------|
|-5-----------5-------------|-------------------------------|--------|
|---8p7p5-7h8---8--7~--5~---|-4~---5~---7~---12h13p12h13p12-|-20/0---|
|---------------------------|-------------------------------|--------|

Verse 3

Repeat VERSE 2, but replace FILL 4 with FILL 5:

[-- Fill 5 ------------------------------------|
|----------10----------------------------------|
|-13^(15)~---13-11-10h12p10--10----------------|
|--------------------------13--13p10h13p10-----|
|-----------------------------------------12---|
|----------------------------------------------|
|----------------------------------------------|

Interlude

|--1--------1p0-----|-----5--3----|-------------------|-----------------|
|:-3----3-------3p1-|-----6--5--5-|-------------------|----8--6---------|
|--2--2---2---------|-3-----------|-5----5h7-9p7------|----------7------|
|--0----------------|-3-----------|-5--5---------10p8-|-7-----------7---|
|:------------------|-------------|-------------------|-----------------|
|-------------------|-------------|-------------------|-----------------|
                                            [--- 1 ---][--- 2 ----------|
|-----------------|------------|------------|---------|-------0---------|
|-3---------------|----6p5h6-5-|-2--3--5--6-|-5--3--2~|-5--3--2---------|
|-3---3h5-7-5-3-2-|-0--------0-|------------|---------|-------2---------|
|-3-3-------------|------------|------------|---------|-------2---------|
|-----------------|------------|------------|---------|-------0---------|
|-----------------|------------|------------|---------|-----------------|

|-17p13-------------------18p13----------------------------|
|-------15-(repeat 4 X)--------15--(repeat 4x)-------------|
|----------------------------------------------------------|
|----------------------------------------------------------|
|----------------------------------------------------------|
|----------------------------------------------------------|

|-15p12------------------17p13-----------------------------|
|-------13-(repeat 4x)---------13-(repeat 4x)--------------|
|----------------------------------------------------------|
|----------------------------------------------------------|
|----------------------------------------------------------|
|----------------------------------------------------------|

|----------------------------------------------------------|
|-15h16p15h16-16/18\16/18-18---16---15---16----------------|
|-15h17p15h17-17/19\17/19-19---17---15---17----------------|
|----------------------------------------------------------|
|----------------------------------------------------------|
|----------------------------------------------------------|

|-15---12---------12----9----10----12----13---12-----------|
|-/-----/----11----/----/-----/-----/-----/----------------|
|-/-----/-----/----/----/-----/-----/-----/----------------|
|-/-----/-----/----/----/-----/-----/-----/----------------|
|-------------/--------------------------------------------|
|----------------------------------------------------------|

|10h12p10h12p10h12-12~~~-9-10-9-10-9-10-----------------------------------------|
|--------------------------------------10-11-10-11-10-11------------------------|
|----------------------------------------------------9-10-9-10-9-10-6-7-6-7-6-7-|
|-------------------------------------------------------------------------------|
|-------------------------------------------------------------------------------|
|-------------------------------------------------------------------------------|

|---------9h10-12-10-12^~~~~~-----5h6p5--5-----------------------|
|-----9h10-----------------------------8---8-6p5-6p5-7-5---------|
|-9h10---------------------------------------------------8p7-5---|
|--------------------------------------------------------------8-|
|----------------------------------------------------------------|
|----------------------------------------------------------------|

|----------------------------------------------------------5-6-8-6-5---------|
|----------------------------------------------------5-6-8-----------8-------|
|-----------------------------------------2-3-5-3-5-7------------------------|
|-5---------5-7p5-------------------2-3-5------------------------------------|
|---8p7p5-8-------8-\----------1-3-5-----------------------------------------|
|-------------------------1-3-5----------------------------------------------|

|-5-------------5------------------------------------------------------------|
|---8-6p5-6p5-8---8-----6--5-----2-3-2-3-2-3/3-5-3-5-3-5/6-5-6-5-6/8-6-8-6-8-|
|----------------------------------------------------------------------------|
|----------------------------------------------------------------------------|
|----------------------------------------------------------------------------|
|----------------------------------------------------------------------------|

-----------------------------------------------------------|
/10-8-10-8-10/11-10-11-10-11-10-11/13-11-13-11-13-11-15^---|
-----------------------------------------------------------|
-----------------------------------------------------------|
-----------------------------------------------------------|
-----------------------------------------------------------|

|-------------------------------------17-18-17--17-------------17---------20--|
|-17h18----------17-18-17-18-------18---------20--20-18-17-18-20--20-18-17----|
|-------19~~~~---------------19~~~~-------------------------------------------|
|-----------------------------------------------------------------------------|
|-----------------------------------------------------------------------------|
|-----------------------------------------------------------------------------|

|-18--17-20-18-17-20--18152018141916\15131814131613121512\11101411-9--|
|---------------------------------------------------------------------|
|---------------------------------------------------------------------|
|---------------------------------------------------------------------|
|---------------------------------------------------------------------|
|---------------------------------------------------------------------|

|-13-10\5h6p5---5------------------------------------------|
|-------------8---8-6-5---5--------------------------------|
|-----------------------7---7-5---5------------------------|
|-------------------------------8---8-7-8-7---------5------|
|-------------------------------------------7/8-7h8--------|
|----------------------------------------------------------|

|----------------------------------------------------------|
|----------------------------------------------------------|
|----------------------------------------------------------|
|-7--5------------------------------------3----------------|
|-------8--7---5--3--------3/5------5-3-5---5-3-5----------|
|--------------------5-3-1---------------------------------|

|----------------------------------------------------------|
|-------------------------------------6p5------------------|
|---------------------------------5h7----7p5-7~~~~---------|
|-6-3-5-3----------------3--5-5/7--------------------------|
|---------5-3---5--3--5------------------------------------|
|----------------------------------------------------------|

|-5h6p5---5------------------------|
|-------8---8-6-5-6-5--------------|
|---------------------7-5-7-5------|
|-----------------------------8-7--|
|----------------------------------|
|----------------------------------|


Song 6  Over The Mountain

Tuning:
Eb Ab Db Gb Bb Eb

( t )= trill notes

Drums
e-----------------------------------------------------------------|
b-----------------------------------------------------------------|
g-----------------------------------------------------------------|
d-----------------------------------------------------------------|
a---------------------------------------------------------7---7---|
e---------------------------------------------------------0---5---|

0:04
x3, pm low notes
e-----------------------------------------------------------------|
b-----------------------------------------------------------------|
g-----------------------------------------------------------------|
d-6---------------------------------------------------------------|
a-6----------------------------------------------------------7--5-|
e-4---4-4-4-4-4-4-4-4-4-4-4-4-4-4-4-4-4-4-4-4-4-4-4-4-4-4-4--0--0-|

then
e-----------------------------------------------------------------|
b-----------------------------------------------------------------|
g-----------------------------------------------------16---15-----|
d-6---------------------------------------------------------------|
a-6---------------------------------------------------14---13-----|
e-4---4-4-4-4-4-4-4-4-4-4-4-4-4-4-4-4-4-4-x~~~~~~~~~\--0----------|

Verse 1:

e-----------------------------------------------------------------|
b-----------------------------------------------------------------|
g-----------------------------------------------------------6-----|
d-----------------------------------------------------------6-----|
a-----------------------------------------------------------4-----|
e-4-4-4-4-4-4-4-4-4-4-4-4-4-4-4-4-4-4-4-4-4-4-4-4-4-4-4-4---------|

e-----------------------------------------------------------------|
b------------------------------------------------4h5--7-----------|
g------------------------------------------------4----6-----------|
d---------------------------------------------6-------------------|
a------------------------------------------6----------------------|
e-4-4-4-4-4-4-4-4-4-4-4-4-4-4-4-4-4--4--7-------------------------|

Chorus:

e-----------------------------------------------------------------|
b-----------------------------------------------------------------|
g-9----------11-----------9------------11-------------------------|
d-9----------11-----------9------------11-------------------------|
a-7-----------9-----------7-------------9-------------------------|
e-7-----------9-----------7-------------9-------------7--6--------|

e-----------------------------------------------------------------|
b-----------------------------------------------------------------|
g-9----------11-----------9------------11-------------------------|
d-9----------11-----------9------------11-------------------------|
a-7-----------9-----------7-------------9-------------7--7--------|
e-7-----------9-----------7-------------9-------------0--5--------|

play intro again

Verse 2

e-----------------7----------------7-----------------7------------|
b-----------------7----------------7-----------------7------------|
g-------------------------------------------------------------6---|
d-------------------------------------------------------------6---|
a-------------------------------------------------------------4---|
e-4-4-4-4-4-4-4-4-----4-4-4-4-4-4------4-4-4-4-4-4------4-4-------|

e------------------7----------------------------------------------|
b------------------7----------------------------4h5---7-----------|
g-----------------------------------------------4-----6-----------|
d--------------------------------------------6--------------------|
a-----------------------------------------6-----------------------|
e-4-4-4-4-4-4-4-4-----4-4-4-4-4-4---4--7--------------------------|

e-----------------7----------------7-----------------7------------|
b-----------------7----------------7-----------------7------------|
g-------------------------------------------------------------6---|
d-------------------------------------------------------------6---|
a-------------------------------------------------------------4---|
e-4-4-4-4-4-4-4-4-----4-4-4-4-4-4------4-4-4-4-4-4------4-4-------|

e------------------7----------------7-----------------------------|
b------------------7----------------7-----------5p4---7-----------|
g-----------------------------------------------4-----6-----------|
d--------------------------------------------6--------------------|
a-----------------------------------------6-----------------------|
e-4-4-4-4-4-4-4-4-----4-4-4-4-4-4------7--------------------------|

Chorus:
play intro again, then

Bridge:

e----------4-------------0-----0---------------------0-----0------|
b-----5------5-------------0-----------5---4------------0---------|
g-6------------6----4--------------6-------------4----------------|
d-6-----------------4--------------6-------------4----------------|
a-4-----------------2--------------4-----------0-2----------------|
e--------------------------------------------4--------------------|

e----------4-------------0-----0-------------------0--------------|
b-----5------5-------------0-----------------------0--------------|
g-6------------6----4--------------6----------2---------2--2------|
d-6-----------------4--------------6----------2---------2--2------|
a-4-----------------2--------------4----------0---------0--0------|
e-----------------------------------------2-4---------------------|

Interlude: x3

e-----------------------------------------------------------------|
b---------7p6h7-----------9p6h9-----------7p6h7-------------------|
g---------8p6h8-----------8p6h8-----------8p6h8-------------------|
d--------------------------------------------------6--------------|
a-6---6-6--------6---6-6----------6-6-6-6----------6--------------|
e--------------------------------------------------4--------------|

then
e-----------------------------------------------------------------|
b---------7p6h7-----------9p6h9-----------7p6h7-------------------|
g---------8p6h8-----------8p6h8-----------8p6h8----4--------------|
d--------------------------------------------------4--------------|
a-6---6-6--------6---6-6----------6-6-6-6----------2--------------|
e-----------------------------------------------------------------|

Solo: 2 gtr parts. arr for 1 gtr w/ octaver,
set to harmonize 1 octave up...this took for bloody ever
to type, so if ya need the rhythm for he solo, figure it out.

e-----------------------------------------------------------------|
b-----------------------------------------------------------------|
g-----------------------------------------------------------------|
d--------x-6~~~~~~~~~------------------------6~~~~~~--------------|
a-------x-------------5~~~~~~~-4-2-------------------5~~~~~/14----|
e-4~~~~~~~-------------------------2-2/4~~~~----------------------|

e-----4-7-5p4---4-------------------------------------------------|
b---5---------7---7p5-4---4---------------------------------------|
g-6---------------------6---6p4-----------------------------------|
d-------------------------------7-6p4-6p4---4---------------------|
a-----------------------------------------7----7~~~~~~--6~~~~~~~~-|
e-----------------------------------------------------------------|

e-----4-7-5p4---4-------------------------------------------------|
b---5---------7---7p5-4---4---------------------------------------|
g-6---------------------6---6p4-----------------------------------|
d-------------------------------7-6p4-6p4---4---------------------|
a-----------------------------------------7----7~~~~~~--6~~~~~~~~-|
e-----------------------------------------------------------------|

e-------------------------------16----------19b~~~-16------16-----|
b----------------------------------19-16-19-----------19b~~---19--|
g----------------------16-18b~~~----------------------------------|
d----------------16-18--------------------------------------------|
a-------14-16/18--------------------------------------------------|
e-14-16-----------------------------------------------------------|

dive and pull whammy bar up on v's

e------------------------------------------------------------0-0---|
b-16h19p16-16h19p16h19p16h19vv-p16h19p16h19vvv-16h19p16h19vvv------|
g------------------------------------------------------------------|
d------------------------------------------------------------------|
a------------------------------------------------------------------|
e------------------------------------------------------------------|

e-7-8-10-7-8----7---------------------------------------------0---|
b------------10---8-10-7-8-5-7-5----------------------------------|
g--------------------------------7-6-7-4h5---4--------------------|
d------------------------------------------7---7-5---4~~~~~-------|
a--------------------------------------------------7--------------|
e-----------------------------------------------------------------|

e-3p2p0-------------------3p2p0-----------------------------------|
b-------3p2p0-------3p2p0-------3p2p0-----------------------------|
g-------------3p2p0-------------------3p2p0--2--0vvvv/12h13h14p13-|
d-----------------------------------------------------------------|
a-----------------------------------------------------------------|
e-----------------------------------------------------------------|

e-10b~~~~~~~~~rb--------------------------------------------------|
b----------------10p7\6-9p6\5-8p5\4-7p4\3-6p3\2-5p2p0h6p3p0h7p4p0-|
g-----------------------------------------------------------------|
d-----------------------------------------------------------------|
a-----------------------------------------------------------------|
e-----------------------------------------------------------------|

e-----------------------------------------------------------------|
b-----------------------------------------------------------------|
g-----------------------------------------------------------------|
d-----------------------------------------------------------------|
a----------------------------------------------x\-----------------|
e-6b~~~~~~~~~~~~~~~~~~~~~~~~~~~~~~~~~~~~~~~~~---------------------|

3rd Verse:

e---------7--------------7---------------7------------------------|
b---------7--------------7---------------7------------------------|
g-----------------------------------------------4------6----------|
d-----------------------------------------------4------6----------|
a------------------------------------------------------4----------|
e-4-4-4-4----4-4-4-4-4-4----4-4-4-4-4-4----4-4-----4--------------|

e----------7-------------7--------------7-------------------------|
b----------7-------------7--------------7----4h5---7--------------|
g--------------------------------------------4-----6--------------|
d-----------------------------------------6-----------------------|
a-----------------------------------------------------------------|
e-4-4-4-4----4-4-4-4-4-4----4-4---4--4----------------------------|

e---------7--------------7---------------7------------------------|
b---------7--------------7---------------7------------------------|
g-----------------------------------------------4------6----------|
d-----------------------------------------------4------6----------|
a------------------------------------------------------4----------|
e-4-4-4-4----4-4-4-4-4-4----4-4-4-4-4-4----4-4-----4--------------|

e----------7-------------7----------------------------------------|
b----------7-------------7-------------------4h5---7--------------|
g--------------------------------------------4-----6p4------------|
d-----------------------------------------6-----------------------|
a---------------------------------------6-------------------------|
e-4-4-4-4----4-4-4-4-4-4----4-4---4--7----------------------------|

Outro Solo:

e-----11-14-12p11--11----------------------------------------------|
b---12-----------14--14p12-11--11----------------------------------|
g-13-------------------------13--13p11--11-------------------------|
d-------------------------------------13--14-13p11-13p11--11-------|
a-------------------------------------------------------14---14-13-|
e------------------------------------------------------------------|

e-----11-14-12p11--11----------------------------------------------|
b---12-----------14--14p12-11--11----------------------------------|
g-13-------------------------13--13p11--11-------------------------|
d-------------------------------------13--14-13p11-13p11--11-------|
a-------------------------------------------------------14---14-13-|
e------------------------------------------------------------------|

e---------------------------------------14-12-11-------------------|
b-------------------------(11t12)---------------14-12-11-----------|
g-------------------11-13-----------13-------------------13-11-13--|b
d----------11-13-14------------------------------------------------|
a-11-13-14---------------------------------------------------------|
e------------------------------------------------------------------|

e-------(11)\--19b~~~~p16----16-----------------------------------|
b-------------------------19----19b~~~~~~~~~~~--------------------|
g-13b~~~----------------------------------------------------------|
d-----------------------------------------------------------------|
a-----------------------------------------------------------------|
e-----------------------------------------------------------------|

e-----------------------------------------------------------------|
b-----------------------------------------------------------------|
g-6---------------------------------------------------------------|
d-6-----------------------------6---------------------------------|
a-4-----------------------7--7--6---------------------------------|
e-4-----------------------0--5--4---------------------------------|


Song 7 Paranoid

E-|---------------------|
B-|---------------------|
G-|-9-9-9----7h9---7h9--|
D-|-9-9-9-7h9---7h9-----|   X4
A-|-7-7-7---------------|
E-|---------------------|

E-|----------------------------------------|
B-|---------------------------7------------|
G-|-9999999999999999-77777777-7-7-9--------|
D-|-9999999999999999-77777777-5-7-9--------|
A-|-7777777777777777-55555555---5-7--------|
E-|----------------------------------------|

E-|-------------------------------------------|
B-|------------------------------7------------|
G-|-999999999999----7h9-77777777-7-7-9--------|
D-|-999999999999-7h9----77777777-5-7-9--------|
A-|-777777777777--------55555555---5-7--------|
E-|-------------------------------------------|

E-|---------------|
B-|---------------|
G-|-9-9/5-55/7-77-| THIS IS WHATS PLAYED IN THE " CAN YOU HELP ME" BIT
D-|-9-9/5-55/7-77-|                JUST ALOT SLOWER
A-|-7-9/3-33/5-55-|
E-|---------------|

PLAYED THROUGHOUT

solo
E-|----------------------------------------------------------|
|------------------------------------------------------------|
|------------------------------------------------------------|
|-15b16b16-12-14---14-12-14-12-------------------------------|
|------------------------------14-12-10h12-10h12-------10----|
|------------------------------------------------10h12-------|

|---------------------------------------------------------|
|---------------------------------------------------------|
|---------------------------------------12h14-14b16b14-12-|
|-----------------------12h14-14--12h14-------------------|
|-----------10\12-12h14-----------------------------------|
|-12--12-12-----------------------------------------------|

|---------------------------------------------12----|
|---------------------------------------12h15----15-|
|-14b16b14-12h14--12--------------------------------|
|--------------------14-14--12h14-14-14-------------|
|---------------------------------------------------|
|---------------------------------------------------|

|-------------------------15b17-(17)-17b15-19p15p12-|
|-15b17b15-15b17b15-15-12---------------------------|
|---------------------------------------------------|
|---------------------------------------------------|
|---------------------------------------------------|
|---------------------------------------------------|

|-19p15p12-------------------------------------------------|
|----------15p14p12-12h15-15p12----------------------------|
|-------------------------------h14-14-12-14-14b16b14-12---|
|----------------------------------------------------------|
|----------------------------------------------------------|
|----------------------------------------------------------|

|-----------------------------------------------------------|
|-----------------------------------------------------------|
|-14b16b14-12h14p12-12--------------------------------------|
|----------------------h14-14p12-----12---------------------|
|--------------------------------h14-----14p12-12-----12h14-|
|-------------------------------------------------h15-------|

|----------------------------------|
|-------------------------------12-|
|-----------12------------------12-|
|-12--12h14----14-12--14-12--14-12-|
|----------------------------------|
|----------------------------------|

THEN BACK TO THE:
E-|----------------------------------------|
B-|---------------------------7------------|
G-|-9999999999999999-77777777-7-7-9--------|
D-|-9999999999999999-77777777-5-7-9--------|
A-|-7777777777777777-55555555---5-7--------|
E-|----------------------------------------|

E-|-------------------------------------------|
B-|------------------------------7------------|
G-|-999999999999----7h9-77777777-7-7-9--------|
D-|-999999999999-7h9----77777777-5-7-9--------|
A-|-777777777777--------55555555---5-7--------|
E-|-------------------------------------------|

E-|---------------|
B-|---------------|
G-|-9-9/5-55/7-77-|
D-|-9-9/5-55/7-77-|
A-|-7-9/3-33/5-55-|
E-|---------------|


Song 8  Bark at the Moon

Intro
  Q=150
 4/4
  Gtr I
            PM----|    PM----|    PM---
  E E     E S S S S  E S S S S  E S S
|-----||------------------------------|
|---8-||-10---------10---------10-----|
|---7-||--9----------9----------9-----|
|---5-||--7----------7----------7-----|
|-----||----0-0-0-0----0-0-0-0----0-0-|
|-----||------------------------------|


 ---|   PM----|   PM------|     PM----|   PM----|   PM|
  S S E S S S S E S S S S E   E S S S S E S S S S E S S
|---------------------------|-----------------------------|
|-----8---------8-----------|-8---------8---------8-------|
|-----9---------9-----------|-7---------7---------7-------|
|-----7---------7-----------|-5---------5---------5-------|
|-0-0---0-0-0-0---0-0-3p0---|---0-0-0-0---0-0-0-0---0-0---|
|-------------------------0-|-----------------------------|


  PM|   PM|   PM|   PM|        PM----|    PM----|    PM---
  S S E S S E S S E S S E    E S S S S  E S S S S  E S S
|-----------------5-------|------------------------------|
|-----6-----6-----6-----8-|-10---------10---------10-----|
|-----5-----4-----4-----7-|--9----------9----------9-----|
|-----3-----5-----5-----5-|--7----------7----------7-----|
|-0-0---0-0---0-0---0-0---|----0-0-0-0----0-0-0-0----0-0-|
|-------------------------|------------------------------|


 ---|             PM------|
  S S E S S S S E S S S S E
|----------------------------|
|-----8---------8------------|
|-----9---------9------------|
|-----7---------7------------|
|-0-0---0-0-0-0---0-0-5p0----|
|-------------------------3--|


                                              $
    PM----|   PM----|   PM|
  E S S S S E S S S S E S S   E E E E E E E E
|---------------------------|-----------------|
|-8---------8---------8-----|-----------------|
|-7---------7---------7-----|-----------------|
|-5---------5---------5-----|-----------------|
|---0-0-0-0---0-0-0-0---0-0-|-1-0-1-3-1-0-----|
|---------------------------|-------------3-1-|


   Verses
       PM----|    PM----|    PM|
     E S S S S  E S S S S  E S S
||--------------------------------|
||o-10---------10---------10------|
||---9----------9----------9------|
||---7----------7----------7------|
||o----0-0-0-0----0-0-0-0----0-0--|
||--------------------------------|


  PM|   PM----|   PM--------|
  S S E S S S S E S S S S S S
|-----------------------------|
|-----8---------8-------------|
|-----9---------9-------------|
|-----7---------7-------------|
|-0-0---0-0-0-0---0-0-0-0-0-0-|
|-----------------------------|


    PM----|   PM----|   PM------|   PM|   PM|   PM|
  E S S S S E S S S S E S S   S S E S S E S S E S S E
|---------------------------|-----------------5-------|
|-8---------8---------8-----|-----6-----6-----6-----6-|
|-7---------7---------7-----|-----5-----4-----4-----5-|
|-5---------5---------5-----|-----3-----5-----5-------|
|---0-0-0-0---0-0-0-0---0-0-|-0-0---0-0---0-0---0-0---|
|---------------------------|-------------------------|


     PM----|    PM----|    PM---
   E S S S S  E S S S S  E S S
|------------------------------|
|-10---------10---------10-----|
|--9----------9----------9-----|
|--7----------7----------7-----|
|----0-0-0-0----0-0-0-0----0-0-|
|------------------------------|


 ---|   PM----|   PM--------|     PM----|   PM----|   PM|
  S S E S S S S E S S S S S S   E S S S S E S S S S E S S
|-----------------------------|-----------------------------|
|-----8---------8-------------|-8---------8---------8-------|
|-----9---------9-------------|-7---------7---------7-------|
|-----7---------7-------------|-5---------5---------5-------|
|-0-0---0-0-0-0---0-0-0-0-0-0-|---0-0-0-0---0-0-0-0---0-0---|
|-----------------------------|-----------------------------|

[ Tab from: http://www.guitartabs.cc/tabs/o/ozzy_osbourne/the_ozzman_cometh_tab_ver_2.html ]
                    Pre-Chorus
  E E E E E E E E    H..       S S   W          H..       S S
|-----------------||-2---------0-0-|-0--------|-2-------------|
|-----------------||-2---------3-3-|-3--------|-5-------------|
|-----------------||-2---------2-2-|-2--------|-4-------------|
|-----------------||-4---------0-0-|-0--------|-2-------------|
|-1-0-1-3-1-0-----||-4---------0-0-|----------|-2-------------|
|-------------3-1-||-2---------0-0-|----------|-0---------2-2-|


  PM----------------------------|
  S S S S S S S S S S S S S S S S   W          W          H..       S S
|---------------------------------|-2--------|-0--------|---------------||
|---------------------------------|-2--------|-3--------|-5-------------||
|---------------------------------|-2--------|-2--------|-4-------------||
|---------------------------------|-4--------|-0--------|-2-------------||
|-4-4-----2-2-----5-5-----4-4-----|-4--------|----------|-2-------------||
|-----2-2-----2-2-----2-2-----2-2-|-2--------|----------|-0---------2-2-||
|
| PM----------------------------|
| S S S S S S S S S S S S S S S S   W          W          W
|---------------------------------|----------|----------|---------------||
|---------------------------------|----------|----------|---------------||
|---------------------------------|----------|----------|---------------||
|---------------------------------|----------|----------|---------------||
|-4-4-----5-5-----2-2-----4-4-----|----------|----------|---------------||
|-----2-2-----2-2-----2-2-----2-2-|----------|----------|---------------||
|
| PM----------------------------|
| S S S S S S S S S S S S S S S S   W          W          W
|---------------------------------|----------|----------|---------------||
|---------------------------------|----------|----------|---------------||
|---------------------------------|----------|----------|---------------||
|---------------------------------|----------|----------|---------------||
|-5-5-----4-4-----2-2-----5-5-----|----------|----------|---------------||
|-----2-2-----2-2-----2-2-----2-2-|----------|----------|---------------||


  1.
                        PM----|    PM----|    PM---
  Q     Q   Q  E E    E S S S S  E S S S S  E S S
|------------------|------------------------------|
|-9--------------8-|-10---------10---------10-----|
|-9--------------7-|--9----------9----------9-----|
|-9--------------5-|--7----------7----------7-----|
|-7----------------|----0-0-0-0----0-0-0-0----0-0-|
|------------------|------------------------------|
|
| Gtr II
| \2____/
| Q    +H.            W
|------------------|------------------------------|
|------------------|------------------------------|
|------------------|------------------------------|
|------------------|------------------------------|
|------------------|------------------------------|
|-0----(0)---------|------------------------------|


 ---|   PM----|   PM--------|
  S S E S S S S E S S S S S S
|-----------------------------|
|-----8---------8-------------|
|-----9---------9-------------|
|-----7---------7-------------|
|-0-0---0-0-0-0---0-0-0-0-0-0-|
|-----------------------------|
|
| W
|-----------------------------|
|-----------------------------|
|-----------------------------|
|-----------------------------|
|-----------------------------|
|-----------------------------|


    PM----|   PM----|   PM------|   PM|   PM|   PM|
  E S S S S E S S S S E S S   S S E S S E S S E S S E
|---------------------------|-------------------------|
|-8---------8---------8-----|-----6-----6-----------8-|
|-7---------7---------7-----|-----5-----4-----4-----7-|
|-5---------5---------5-----|-----3-----5-----5-----5-|
|---0-0-0-0---0-0-0-0---0-0-|-0-0---0-0---0-0---0-0---|
|---------------------------|-------------------------|


     PM----|    PM----|    PM|
   E S S S S  E S S S S  E S S
|-------------------------------|
|-10---------10---------10------|
|--9----------9----------9------|
|--7----------7----------7------|
|----0-0-0-0----0-0-0-0----0-0--|
|-------------------------------|


  PM|   PM----|   PM------|     PM----|   PM----|   PM------------------|
  S S E S S S S E S S S S E   E S S S S E S S S S E S S   E E E E E E E E
|---------------------------|---------------------------|-------------------||
|-----8---------8-----------|---------------------------|------------------o||
|-----9---------9-----------|-7---------7---------7-----|-------------------||
|-----7---------7-----------|-5---------5---------5-----|-------------------||
|-0-0---0-0-0-0---0-0-3-0-0-|---0-0-0-0---0-0-0-0---0-0-|-1-0-1-3-1-0------o||
|---------------------------|---------------------------|-------------3-1---||


                    Chorus
  2.,3.,D.S.
                        PM|
  Q     Q   H        Q  E E E E E E
|-----------------||----------------|
|-9---------------||----------------|
|-9---------------||-2------5-7---4-|
|-9---------------||-2------5-5---5-|
|-7---------------||-0--0-0---------|
|-----------------||----------------|
|
| Gtr II
|   \2______/
| E Q.     +H        W
|-----------------||----------------|
|-----------------||----------------|
|-----------------||----------------|
|-----------------||----------------|
|-----------------||----------------|
|---0------(0)----||----------------|


  +E  S S S S S S S S E E E   E E E E +Q   E S S
|---------------------------|-------0-(0)--0------|
|---------------------------|-------0-(0)--1------|
|-(4)-----4-4-----5s7p5-4---|-4s2---2-(2)--2------|
|-(5)-5-5-----5-5-----------|-5s3---3-(3)--3------|
|-----------------3s5p3-2---|----------------0-0--|
|-------------------------3-|---------------------|
|
|  W                          W
|---------------------------|---------------------|
|---------------------------|---------------------|
|---------------------------|---------------------|
|---------------------------|---------------------|
|---------------------------|---------------------|
|---------------------------|---------------------|


                         PM--|               PM------------------------|
  E E E E +Q   E E    Q  E S S E E E E   +E  S S S S S S S S S S S S S S
|-------0-(0)--0----|------------------|----------------------------------|
|-------0-(0)--0----|----------------3-|-(3)------------------------------|
|-2-4---4-(4)--4-x\-|-2--------5-7---4-|-(4)-----4-4-----7-7-5-5-4-4------|
|-3-2---2-(2)--2-x\-|-2--------5-5---5-|-(5)-5-5-----5-5-------------5-5--|
|-------2-(2)--2-x\-|-0--0-0-0---------|----------------------------------|
|-------0-(0)--0----|------------------|----------------------------------|


                                         Bridge
                                To Coda
                 PM|                         PM|  ~~~ PM       PM   ~~~
  E E E E +Q   E S S   E E E E +Q.   E    q  E E  Q   E E   q  E E  Q   E E
|-------0-(0)--0-----|-------0-(0)-----||-----------------|------------------|
|-------0-(0)--1-----|-------0-(0)-----||-----------------|------------------|
|-4s2---2-(2)--2-----|-2-4---4-(4)-----||-----------------|------------------|
|-5s3---3-(3)--3-----|-3-2---2-(2)---2-||-3-------------2-|-3----------------|
|--------------------|-------2-(2)---2-||-3--3-1-[2]--3-2-|-3--3---[2]--3----|
|----------------0-0-|-------0-(0)---0-||-1-------------0-|-1----1--------1--|


                  \2
                              PM     PM|  ~~~ PM       PM   ~~~
  Q  Q  E E E E   H.      +E  E   q  E E  Q   E E   q  E E  Q   E E
|----3--5---3---|-3-------(3)---|-----------------|-----------------|
|-3-------3-----|-3-------(3)---|-----------------|-----------------|
|-0-----------0-|---------------|-----------------|-----------------|
|-0-------------|---------------|-3-------------2-|-3---------------|
|---------------|-------------2-|-3--3---[2]--3-2-|-3--3---[2]--3---|
|-3-------------|-------------0-|-1----1--------0-|-1----1--------1-|


             \1___/
                                     PM|  ~~~ PM       PM|  ~~~
  W          A   +H.      +E  E   q  E E  Q   E E   Q  E E  Q   E E
|-3--------|--------------------|-----------------|------------------|
|-3--------|--------------------|-----------------|------------------|
|-0--------|--------------------|-----------------|------------------|
|-0--------|--------------------|-3---------------|------------------|
|----------|-0---(0)------(0)---|-3--3---[2]--3---|----3---[2]--3----|
|-3--------|------------------0-|-1----1--------0-|-1----1--------1--|


                     \2
        T
  H    +H            H..       E   H..       E    H..       E
|-----------------|--------------|-----------0-|--5-----------|
|-3----(3(12))----|--------------|-------------|--6-----------|
|-0----(0(12))----|--------------|-------------|--7-----------|
|-0----(0(12))----|-<5>----------|-3-----------|--7-----------|
|-----------------|--------------|-3-----------|--5---------3-|
|-3---------------|------------0-|-1-----------|--------------|
|
|                                Gtr II
|                                  <
|                                  ~~~~~~~~~~~~~~~~~~~
| w                  w             w             +w
|-----------------|--------------|-------------|--------------|
|-----------------|--------------|-------------|--------------|
|-----------------|--------------|-7-----------|-(7)----------|
|-----------------|--------------|-------------|--------------|
|-----------------|--------------|-------------|--------------|
|-----------------|--------------|-------------|--------------|


   H.      E E   +E  E q  q  q     q   E E q  E E   +q   E E q  E E
|----------0---|----------1-----|-----------------|-----------------||
|--3---------3-|-(3)---1--------|------5---5----3-|-(3)--5---3--5---||
|--3-----------|-----3-------3--|--5-----5----5---|--------5-5--5---||
|--3-----------|-------------3--|--5----------5---|----------5--5---||
|--1-----------|----------------|--3--------------|---------------3-||
|--------------|----------------|-----------------|---------------3-||
|
|  ~~~~~~~~~~~~~~~~~~~~~~~~~~~~~~~~~~~~~~~~~~~~~~~~~~~~~
| +w             +w               +w                +w
|--------------|----------------|-----------------|-----------------||
|--------------|----------------|-----------------|-----------------||
|-(7)----------|-(7)------------|-(7)-------------|-(7)-------------||
|--------------|----------------|-----------------|-----------------||
|--------------|----------------|-----------------|-----------------||
|--------------|----------------|-----------------|-----------------||


 guitar solo
  gtr ii
    ~~~~
                                                |--3--|
    H.          E  E          +q.         +E    E  E  E  q
|--------------------------|-------------------10--------------|
|-/13-----------x-13b14====|=(13)b15=====(13)r----13-10--------|
|---------------x----------|----------------------------12b14r=|
|---------------x----------|-----------------------------------|
|--------------------------|-----------------------------------|
|--------------------------|-----------------------------------|
|
| gtr i
|             pm---------|                 pm
|   q   E E E E E  s     s     q       E   E    q        q
|---5-----5-5--------------|---5-------5-----------------------|
|---6-----6-6--------------|---6-------6--------5--------5-----|
|---7-----7-7--------------|---7-------7--------5--------5-----|
|---7-----7-7--------------|---7-------7--------5--------5-----|
|---5-----5-5-5-5--5-----5-|---5-------5---5----3--------3-----|
|--------------------------|-----------------------------------|


               ~~~~~~~~                            ~~~
   +E.  s  E   E   +E  E  E E      s s  E E  E  A  q.     s  s
|-------------------------------|------------------------------|
|-------------------------------|------------------------------|
|-(12)-10-12-[10]-(10)-9-10-9---|-10p9----9--------------------|
|-------------------------------|------12---10-10s12-----------|
|-------------------------------|------------------------10h12-|
|-------------------------------|------------------------------|
|
|          pm          pm   pm|              pm
|   q      E   E    E  E  E s s    q      E  E     q   q
|---5----------5----5-----5-----|--5------5--------------------|
|---6----------6----6-----6-----|--6------6--------5-----------|
|---7----------7----7-----7-----|--7------7--------5-----------|
|---7----------7----7-----7-----|--7------7--------5-----------|
|---5------5---5----5--5--5-5-5-|--5------5--5-----3---0-------|
|-------------------------------|------------------------------|


                                            ~~~
               |--3--|
   s  s  s  s  s  s  s  e      +e   +s   s  q
|-------------------------------------------------|
|-------------------------------------------------|
|-------------------10-12b14==(12)r(12)-10-12s====|
|-10----12----10----------------------------------|
|----12----12----12-------------------------------|
|-------------------------------------------------|
|
|                                             pm|
|  q           E        E       E    E      E s s
|-------------------------------------------------|
|--3-----------3----------------3----3------3-----|
|--3-----------3----------------3----3------3-----|
|--3-----------3----------------3----3------3-----|
|--1-----------1--------1-------1----1------1-1-1-|
|-------------------------------------------------|


                                                                         ~~
  E   E  E  E        +H          +q     A      +E   E  s  s  s  s  s  s  E
|----------15b17====(15)------|-(15)r--15pb17r(15)-13-12h13p12----12-------|
|-------13--------------------|--------------------------------15----13-15-|
|-2/-14-----------------------|--------------------------------------------|
|-----------------------------|--------------------------------------------|
|-----------------------------|--------------------------------------------|
|-----------------------------|--------------------------------------------|
|
|                                                                  pm---|
| q      E  s     s   q   E E     H.                               E     E
|---------------------------3-|---3----------------------------------------|
|-3------3------------3-----3-|---3----------------------------------------|
|-3------3------------3-----3-|---3----------------------------------------|
|-3------3------------3-------|---5----------------------------------------|
|-1------1--1-----1---1---0---|---5----------------------------------------|
|-----------------------------|---3--------------------------------5-----5-|


    ~~~~             ~~
   +q    e  e  s  s  q    e    e  e  s  s  s  s  s  s  s  s  e  s  s
|-------------17p13---------|----13-17p13-15p13s12-13-12-------12----|
|-(15)--13-15-------15---13-|-15-------------------------13----------|
|---------------------------|-------------------------------14----14-|
|---------------------------|----------------------------------------|
|---------------------------|----------------------------------------|
|---------------------------|----------------------------------------|
|
|                                 pm                   pm       pm|
|   H          E     E E  E    E  E  E     s  s  E     E     E  s  s
|--------------5-----5-5--5-|--5-----5-----5--5--5-----------5-------|
|--------------5-----5-5--5-|--6-----6-----6--6--6-----------6-------|
|---2----------2-----2-2--2-|--7-----7-----7--7--7-----------7-------|
|---2----------2-----2-2--2-|--7-----7-----7--7--7-----------7-------|
|---0----------0-----0-0--0-|--5--5--5-----5--5--5-----5-----5--5--5-|
|---------------------------|----------------------------------------|


                             ~~~~
   E.    s     +E   +s   s   H
|------------------------------------|
|-13----15b18r(15)-(15)p13-[13]------|
|------------------------------------|
|------------------------------------|
|------------------------------------|
|------------------------------------|
|
|     pm             pm-|
|  e  e         e    s   s   q   q
|--5------------5--------------------|
|--6------------6------------5---5---|
|--7------------7------------5---5---|
|--7------------7------------5---5---|
|--5--5---------5----5---5---3---3---|
|------------------------------------|


  e  e     s  s  s  s     s  s  s  s  s  s  s     +s
|---------10----------------10------------------------|
|---13b15----13p10-------10----13p10----10------------|
|------------------12b14-------------12----12b14r(12)p|
|-----------------------------------------------------|
|-----------------------------------------------------|
|-----------------------------------------------------|
|
|    pm                         pm          pm---|
| E  E     E     s  s     E     E     E     s      s
|-5--------5-----5--5-----5-----------5---------------|
|-6--------6-----6--6-----6-----------6---------------|
|-7--------7-----7--7-----7-----------7---------------|
|-7--------7-----7--7-----7-----------7---------------|
|-5--5-----5-----5--5-----5-----5-----5-----5------5--|
|-----------------------------------------------------|


                ~~~~      ~~        ~~~~~~~~~~~~~~
   s  s  s  s   e   s  s  q   e.s   q.    e   +q      e s  s
|---------------------------------|---------------------------|
|---------------------------------|---------------------------|
|-10----12----[10]----------------|---------------------------|
|----12----12------12p10-12--10p8-|-8-----7---(7)-----5-x-10--|
|---------------------------------|---------------------------|
|---------------------------------|---------------------------|
|
|        pm         pm|                   pm------|     pm|
|  e     e      e   s  s  q   q     q   e s s  s  s e e s  s
|--5------------5-----------------|---------------------------|
|--6------------6---------5---5---|-3---3-------------3-------|
|--7------------7---------5---5---|-3---3-------------3-------|
|--7------------7---------5---5---|-3---3-------------3-------|
|--5-----5------5---5--5--3---3---|-1---1-1-1--1--1-1-1-1--1--|
|---------------------------------|---------------------------|


   ~~~                       ~~
                                                       |---3----|
   q.     e   +q    e.  s    q   e  e  e  s      +s   +s   +s   s  e
|-------------------------|--------------------------------------------|
|-------------------------|-----10----10-12b13==(12)-(12)-(12)r--------|
|-------------------------|-----10----10-12b14==(12)-(12)r(12)p10------|
|-10------8---(8)--10--10-|-12-----12-----------------------------12---|
|-------------------------|--------------------------------------------|
|-------------------------|--------------------------------------------|
|
|                                   pm---|                         pm|
|  E  E E s s  q    q        q   E  E  E  E            E           s s
|-------------------------|------5---------------------5---------------|
|-----3-3-----------------|------6---------------------6---------------|
|-----3-3------5----5-----|--7---7---------------------7---------------|
|-----3-3------5----5-----|--7---7---------------------7---------------|
|--1--1-1-1-1--3----3-----|--5---5--5--5--5------------5-----------5-5-|
|-------------------------|--------------------------------------------|


                  ~~
   E  E     s  s  E  +E   E q
|-------------------------------|
|-12------------------------x\--|
|-12-10b11------------------x\--|
|----------12p10-12-(12)----x\--|
|------------------------12-x\--|
|-------------------------------|
|
|  h                  q     q
|--5----------------------------|
|--6----------------------------|
|--7------------------7-----7---|
|--7------------------7-----7---|
|--5------------------5-----5---|
|-------------------------------|


  s  s s s s s s s s s s s s s s s
|----------------------------------|
|----------------------------------|
|--------------------------------3-|
|------------------3---3-5-7p5-7---|
|--------3-5p3-5-7---7-------------|
|-6p=5-6---------------------------|
|
| h..                          s s
|----------------------------------|
|-3----------------------------3-3-|
|-3----------------------------3-3-|
|-3----------------------------3-3-|
|-1----------------------------1-1-|
|----------------------------------|


  s s s s s s s s q.     s s   s s s s s s s s s s s s s s s s
|----------------------------|---------------------------------|
|---------5-----5-6b8--------|---------------------------------|
|-5p3-5h7---5-7--------------|-------------------------------5-|
|------------------------x-x-|-----------------5---5-7-8p7-8---|
|------------------------x-x-|-------5-7p5-7-8---8-------------|
|------------------------x-x-|-8p6-8---------------------------|
|
| q       e   s s q    q       w
|----------------------------|---------------------------------|
|-3-------x---3-3-3----3-----|-5-------------------------------|
|-3-------x---3-3-3----3-----|-5-------------------------------|
|-3-------x---3-3-3----3-----|-5-------------------------------|
|-1-------x---1-1-1----1-----|-3-------------------------------|
|----------------------------|---------------------------------|


                       ~~~
   s  s s s s s s s a  q.     +e      s s  s s s s s  s s  s s s  s s  s s
|----------------------------------|---------------------------------------|
|-----------6---6-8-8s10-----(10)\-|---------------------------------------|
|--7p=5-7h9---9--------------------|-------------------------------------7-|
|----------------------------------|--------------------7----7-8-10-8-10---|
|----------------------------------|---------7-8p7-8-10---10---------------|
|----------------------------------|-10p8-10-------------------------------|
|
|               pm|                                               pm
| +q.           s s    q   q          h.                          e    s s
|----------------------------------|---------------------------------------|
|-(5)-----------5-5----------------|---------------------------------------|
|-(5)-----------5-5----5---5-------|--2---------------------------2----2-2-|
|-(5)-----------5-5----5---5-------|--2---------------------------2----2-2-|
|-(3)-----------3-3----3---3-------|--0---------------------------0----0-0-|
|----------------------------------|---------------------------------------|


                                       tp tp
  s s s  s  s  s  s  s  s  s  s  s  e  s  s
|----------------------------------10-10-12--|
|-------------------10-11-10-11-13-----------|
|-9p7-9-10s12-10-12--------------------------|
|--------------------------------------------|
|--------------------------------------------|
|--------------------------------------------|
|
|                                   pm
| H.                                E  E
|--------------------------------------------|
|--------------------------------------------|
|-3------------------------------------3-----|
|-3------------------------------------3-----|
|-1---------------------------------1--1-----|
|--------------------------------------------|


   tp  tp tp tp tp tp tp tp tp tp tp tp tp tp tp tp tp tp tp tp tp tp
   |--3---|  |--3--|     |--3--|  |--3--|  |--3--|  |--3--|  |--3--|
   s   s  s  s  s  s  e  s  s  s  s  s  s  s  s  s  s  s  s  s  s  s
|-13--12-10-------------------12-15-13-12-------------------12-13-15-|
|-----------13-11-10-11-13-12-------------15-13-15-11-13-15----------|
|--------------------------------------------------------------------|
|--------------------------------------------------------------------|
|--------------------------------------------------------------------|
|--------------------------------------------------------------------|
|
|                                                   pm
|  H.                                               E        E
|--------------------------------------------------------------------|
|--3---------------------------------------------------------3-------|
|--0---------------------------------------------------------0-------|
|--0---------------------------------------------------------0-------|
|--2------------------------------------------------2--------2-------|
|--------------------------------------------------------------------|


   tp tp tp tp tp tp tp tp tp tp tp tp tp tp tp tp tp tp tp tp tp tp
   |--3--|  |--3--|  |--3--|  |--3--|  |--3--|  |--3--|  |--3--|
   s  s  s  s  s  s  s  s  s  s  s  s  s  s  s  s  s  s  s  s  s  e
|-17-15-13-------------------13-15-17-18-17-15-------------------15---||
|----------17-17-15-13-15-17-------------------18-18-17-15-17-18------||
|---------------------------------------------------------------------||
|---------------------------------------------------------------------||
|---------------------------------------------------------------------||
|---------------------------------------------------------------------||
|
|  q                 q                 E        E        E        E





|---------------------------------------------------------------------||
|--5-----------------5-----------------5--------5--------5--------8---||
|--5-----------------5-----------------5--------5--------5--------7---||
|--5-----------------5-----------------5--------5--------5--------5---||
|--3-----------------3-----------------3--------3--------3------------||
|---------------------------------------------------------------------||


   ~~~~~~~~~~~~~~~~~~~~~~~~~~~~~~~~~~~~~~~~~~~~~~~~~~~~~~~~~~~~~~~~~~~~
   q.          e  +q         q        +e      q.          h
|-17----------17-(17)-------17-----|-(17)---[17]---------17-----------|
|----------------------------------|----------------------------------|
|----------------------------------|----------------------------------|
|----------------------------------|----------------------------------|
|----------------------------------|----------------------------------|
|----------------------------------|----------------------------------|
|
|     pm----|      pm-----|    pm---------|      pm----|    pm------|
|  e  s s s s  e   s  s s s  e s s     s  s   e  s s s s  e s s s s e
|----------------------------------|----------------------------------|
|-10----------10------------10-----|----------8-----------8-----------|
|--9-----------9-------------9-----|----------9-----------9-----------|
|--7-----------7-------------7-----|----------7-----------7-----------|
|-----0-0-0-0------0--0-0-0----0-0-|---0--0------0-0-0-0----0-0-3p0---|
|----------------------------------|--------------------------------3-|


 ~~~~~~~~~~~~~~~~~~~~~~~~~~~~~~~~~~~~~~~~~~~~~~~~~~~~~~~~
   q.          e  +q         q        +e     q.        h
|-17----------17-(17)-------17-----|-(17)---17--------17-----------|
|----------------------------------|-------------------------------|
|----------------------------------|-------------------------------|
|----------------------------------|-------------------------------|
|----------------------------------|-------------------------------|
|----------------------------------|-------------------------------|
|
|     pm----|      pm-----|    pm---------|     pm|    pm|   pm|
|  e  s s s s  e   s  s s s  e s s     s  s  e  s s e  s s e s s e
|----------------------------------|-------------------------------|
|--8-----------8-------------8-----|---------6------6------------6-|
|--7-----------7-------------7-----|---------5------4------4-----4-|
|--5-----------5-------------5-----|---------3------5------5-------|
|-----0-0-0-0------0--0-0-0----0-0-|---0--0-----0-0----0-0---0-0---|
|----------------------------------|-------------------------------|


  gtr i
     pm----|    pm----|    pm------|             pm|
   e s s s s  e s s s s  e s s   s s e s s s s e s s s s e
|------------------------------|---------------------------|
|-10---------10---------10-----|-----8---------8-----------|
|--9----------9----------9-----|-----9---------9-----------|
|--7----------7----------7-----|-----7---------7-----------|
|----0-0-0-0----0-0-0-0----0-0-|-0-0---0-0-0-0---0-0-5p0---|
|------------------------------|-------------------------3-|


                                d.s. al coda
    pm----|   pm----|   pm|
  E s s s s E s s s s E s s   E E E E E E E E
|---------------------------|-----------------||
|-8---------8---------8-----|-----------------||
|-7---------7---------7-----|-----------------||
|-5---------5---------5-----|-----------------||
|---0-0-0-0---0-0-0-0---0-0-|-1-0-1-3-1-0-----||
|---------------------------|-------------3-1-||


  &
     pm|
  q  E E E E E E   +E  s s s s s s s s E E E
|----------------|---------------------------|
|----------------|---------------------------|
|-2------5-7---4-|-(4)-----4-4-----5s7p5-4---|
|-2------5-7---5-|-(5)-5-5-----5-5-----------|
|-0--0-0---------|-----------------3s5p3-2---|
|----------------|-------------------------3-|


                 pm                           pm--|
  E E E E +q   E s s   E E E E +q   E E    q  E s s E E E E
|-------0-(0)--0-----|-------0-(0)--0----|------------------|
|-------0-(0)--1-----|-------0-(0)--0----|----------------3-|
|-4s2---2-(2)--2-----|-2-4---4-(4)--4-x\-|-2--------5-7---4-|
|-5s3---3-(3)--3-----|-3-2---2-(2)--2-x\-|-2--------5-7---5-|
|----------------0-0-|-------2-(2)--2-x\-|-0--0-0-0---------|
|--------------------|-------0-(0)--0----|------------------|


      pm------------------------|                  pm
  +e  s s s s s s s s s s s s s s   e e e e +q   e s s   e e e e e e e e
|---------------------------------|-------0-(0)--0-----|-------0---0---0--||
|-(3)-----------------------------|-------0-(0)--1-----|-------0---0---0--||
|-(4)-----4-4-----7-7-5-5-4-4-----|-4s2---2-(2)--2-----|-2-4---4---4---4--||
|-(5)-5-5-----5-5-------------5-5-|-5s3---3-(3)--3-----|-3-2---2---2---2--||
|---------------------------------|----------------0-0-|-------2---2---2--||
|---------------------------------|--------------------|-------0---0---0--||


   outro - guitar solo
    gtr ii
     s  s  s  s  s  s  s  s  s  s  s  s  s  s  s  s
||--------------------------------------------------|
||o-13p12----12-13p12-13p12----12-13p12-13p12----12-|
||--------14----------------14----------------14----|
||--------------------------------------------------|
||o-------------------------------------------------|
||--------------------------------------------------|
|
|   gtr i
|                pm---|
|    q           E     E     E     E     E     E
||--------------------------------------------------|
||o-------------------------------------------------|
||---2-----------------------5-----7-----------4----|
||---2-----------------------5-----5-----------5----|
||o--0-----------0-----0----------------------------|
||--------------------------------------------------|


   s   s  s  s  s  s  s  s  s  s  s  s  s  s  s  s
|--------------------------------------------------|
|-15p=12----12-15p12-15p12----12-15p12-15p12----12-|
|--------12----------------12----------------12----|
|--------------------------------------------------|
|--------------------------------------------------|
|--------------------------------------------------|
|
|
| +e      s  s  s  s  s  s  s  s  e     e     e
|--------------------------------------------------|
|--------------------------------------------------|
|-(4)-----------4--4--------5s=7p=5-----4----------|
|-(5)-----5--5--------5--5-------------------------|
|---------------------------3s=5p=3-----2----------|
|---------------------------------------------3----|

   s  s  s  s  s  s  s  s  s   s  s  s  s  s  s  s
|--------------------------------------------------|
|-17p13----13-17p13-17p13-----13-17p13-17p13----12-|
|--------------------------------------------------|
|-------15----------------15-----------------15----|
|--------------------------------------------------|
|--------------------------------------------------|
|
|                                             pm-|
|  E     E     E     E    +q            E     s  s
|--------------------0----(0)-----------0----------|
|--------------------0----(0)-----------1----------|
|--4s====2-----------2----(2)-----------2----------|
|--5s====3-----------3----(3)-----------3----------|
|---------------------------------------------0--0-|
|--------------------------------------------------|


  1.
   s  s  s  s  s  s  s  s  s   s  s  s  s  s  s   s
|----------------------------------------------------||
|-15p12----12-15p12-15p12-----12-15p12-15p12-----12-o||
|-------12----------------12-----------------12------||
|----------------------------------------------------||
|---------------------------------------------------o||
|----------------------------------------------------||
|
|  E     E     E     E    +q            E     E
|--------------------0----(0)-----------0------------||
|--------------------0----(0)-----------0-----------o||
|--2-----4-----------4----(4)-----------4-----x\-----||
|--3-----2-----------2----(2)-----------2-----x\-----||
|--------------------2----(2)-----------2-----x\----o||
|--------------------0----(0)-----------0------------||


  2.
    s  s  s  s  s  s  s  s  s   s  s  s  s  s  s   s
|--13p12----12----------------------------------------|
|--------15----15-13p12----12--13p12----12------------|
|-----------------------14-----------14----13p12------|
|-------------------------------------------------14--|
|-----------------------------------------------------|
|-----------------------------------------------------|
|
|   E     E     E     E    +q            E     E
|---------------------0----(0)-----------0------------|
|---------------------0----(0)-----------0------------|
|---2-----4-----------4----(4)-----------4-----x\-----|
|---3-----2-----------2----(2)-----------2-----x\-----|
|---------------------2----(2)-----------2-----x\-----|
|---------------------0----(0)-----------0------------|


     s  s  s  s  s  s  s  s  s  s  s  s  s  s  s  s
||--------------------------------------------------|
||o-13p12----12-13p12-13p12----12-13p12-13p12----12-|
||--------14----------------14----------------14----|
||--------------------------------------------------|
||o-------------------------------------------------|
||--------------------------------------------------|
|
|                pm---|
|    q           E     E     E     E     E     E
||--------------------------------------------------|
||o-------------------------------------------------|
||---2-----------------------5-----7-----------4----|
||---2-----------------------5-----5-----------5----|
||o--0-----------0-----0----------------------------|
||--------------------------------------------------|


   s   s  s  s  s  s  s  s  s  s  s  s  s  s  s  s
|--------------------------------------------------|
|-15p=12----12-15p12-15p12----12-15p12-15p12----12-|
|--------12----------------12----------------12----|
|--------------------------------------------------|
|--------------------------------------------------|
|--------------------------------------------------|
|
| +e      s  s  s  s  s  s  e     e     e     e
|--------------------------------------------------|
|--------------------------------------------------|
|-(4)-----------4--4-------/9-----7-----4----------|
|-(5)-----5--5--------5--5-------------------------|
|--------------------------/7-----5-----2----------|
|---------------------------------------------3----|

   s  s  s  s  s  s  s  s  s   s  s  s  s  s  s  s
|--------------------------------------------------|
|-17p13----13-17p13-17p13-----13-17p13-17p13----12-|
|--------------------------------------------------|
|-------15----------------15-----------------15----|
|--------------------------------------------------|
|--------------------------------------------------|
|
|                                             pm|
|  E     E     E     E    +q            E     s  s
|--------------------0----(0)-----------0----------|
|--------------------0----(0)-----------1----------|
|--4s====2-----------2----(2)-----------2----------|
|--5s====3-----------3----(3)-----------3----------|
|---------------------------------------------0--0-|
|--------------------------------------------------|


  1.
   s  s  s  s  s  s  s  s  s   s  s  s  s  s  s   s
|----------------------------------------------------||
|-15p12----12-15p12-15p12-----12-15p12-15p12-----12-o||
|-------12----------------12-----------------12------||
|----------------------------------------------------||
|---------------------------------------------------o||
|----------------------------------------------------||
|
|  E     E     E     E    +q            E     E
|--------------------0----(0)-----------0------------||
|--------------------0----(0)-----------0-----------o||
|--2-----4-----------4----(4)-----------4-----x\-----||
|--3-----2-----------2----(2)-----------2-----x\-----||
|--------------------2----(2)-----------2-----x\----o||
|--------------------0----(0)-----------0------------||


  2.
                                                      ~~~
   s  s  s  s  s  s  s  s  s   s  s  s  s  s  s  s    q   q  h
|-13p12----12--------------------------------------|--------------*|
|-------15----15-13p12----12--13p12----12----------|--------------*|
|----------------------14-----------14----13p12----|-14\----------*|
|-----------------------------------------------14-|--------------*|
|--------------------------------------------------|--------------*|
|--------------------------------------------------|--------------*|
|
|  E     E     E     E    +q            E     E       q   q  H
|--------------------0----(0)-----------0----------|--------------*|
|--------------------0----(0)-----------0----------|--------------*|
|--2-----4-----------4----(4)-----------4----------|--------------*|
|--3-----2-----------2----(2)-----------2-----5----|--7-----------*|
|--------------------2----(2)-----------2-----5----|--7-----------*|
|--------------------0----(0)-----------0-----3----|--5-----------*|

Song 9  Shot in the Dark

I know its not right but its close

Intro 2 times
with Distortion
e[-----------18-18b20-18~~~~--18-20-18--22b-------------|
B[------18----------------------------------------------|
G[-15---------------------------------------------------|
D[------------------------------------------------------|
A[------------------------------------------------------|
E[------------------------------------------------------|

Intro part 2, 2 times
e[------------------------------------------------------|
B[------------------------------------------------------|
G[--------6-----5---6-5---------------------------------|
D[-xx-----6-----5---6-5---------------------------------|
A[-xx-----4-xxx-3---4-3---------------------------------|
E[----0-0---------------(4)-----------------------------|
    PM...

Verse
Clean
e[------------------------------------------------------|
B[-------1------1---------------------------------------|
G[-----3------3---3--------------3-------3--------------|
D[---3--------------3---3------4-------4---4------------|
A[-1--------1---------1------4-------4-------4----------|
E[-------------------------2-------2--------------------|

e[-------1------1-----------------------------------------|
B[------------1----------------4-------4------------------|
G[-----3----3-----3---------------------------------------|
D[---3--------------3--------4-------4---4----------------|
A[-1------1-----------1----4-------4-------4--------------|
E[-----------------------2-------2------------------------|

Pre-Chorus
Distortion
e[------------------------------------------------------|
B[------------------------------------------------------|
G[-5-----6-8----5-----6-8---6-5----6-5------------------|
D[-5-----6-8----5-----6-8---6-5----6-5------------------|
A[-3-----4-6----3-----4-6---4-3----4-3------------------|
E[------------------------------------------------------|

e[------------------------------------------------------|
B[------------------------------------------------------|
G[-5-----6-8----5-----6-8-------------------------------|
D[-5-----6-8----5-----6-8------3------------------------|
A[-3-----4-6----3-----4-6------3------------------------|
E[-----------------------------1------------------------|

Chorus
Distortion
e[------------------------------------------------------|
B[------------------------------------------------------|
G[-3-----------------6---5------------------------------|
D[-3-----------------6---5--6-(4)-----------------------|
A[-1-----------------4---3--6-(4)-----------------------|
E[--------------------------4-(2)-----------------------|

Intro Part 2

Verse

Chorus

Interlude
e[------------------------------------------------------|
B[------------------------------------------------------|
G[-6---13r11--6-10b11r10~~~-4---13r11--6-10b11r10~~~----|
D[-6------------------------4---------------------------|
A[-4------------------------2---------------------------|
E[------------------------------------------------------|

GUITAR SOLO
e[------------------------------------------------------|
B[-11p9-11~~~~-9b11-9-----------------------------------|
G[-------------------10p8---10p8---10p8----10~~~~~------|
D[-----------------------8p6----8p6----8p6--------------|
A[------------------------------------------------------|
E[------------------------------------------------------|

e[------------------------------------------------------|
B[------------------------------------------------------|
G[-10-8------------8------------------------------------|
D[------8-6----6-8---6br--------------------------------|
A[------------------------11p8-11p8----11-13-14---------|
E[------------------------------------------------------|

e[------------------------------------------------------|
B[-11----------13------14------16------18~~~~~----------|
G[------------------------------------------------------|
D[------------------------------------------------------|
A[------------------------------------------------------|
E[------------------------------------------------------|
  TR..............................


Song  10  Crazy Babies

Tune down 1/2 step: Eb Ab Db Gb Bb Eb


1,2,3===================================||4===================================|
|--------------------|-------------------|-------------3-------|--------------|
|--------------------|-------------------|-------------3-2/4\2-|--------------|
|--------------------|-------------------|---------------2/4\2-|--------------|
|-----------------2--|-----------2-----2-|---------------------|-----2------2-|
|-2----2-2-2------0--|-2-----2---0-PH--0-|-2----2-2-2----------|-2---0-PH---0-|
|-0----0-0-0--0-3----|-0-----0-3---3^----|-0----0-0-0----------|-0-3---3^-----|

Verse: "theyd better come down soon or everyone will know just why"
|------------------------|-----------------------|--------|
|----------3-------------|--3---------------3----|-9~~~---|
|----------2-------2-----|--2--------2------2----|-9------|
|-2--------0-------2-----|--0--------2------0----|-9------|
|-2----------------0-----|-------0-0-0-----------|--------|
|-0----------------------|-----------------------|--------|

----------------------------------|---------------3-------|
----------------------------------|-9~~~----------3-2/4\2-|then play 1st fig. - 2nd half
----------------------------------|-9---------------2/4\2-|
-----------------------2--------2-|-9---------------------|
PM..................---0-PH-----0-|-----------------------|
-0-0-0-0-0-0-0-0-0-0-3---3^--0----|------0--0--0----------|

"Nobodys gonna tame them...they're never gonna stop..."
|-----------------|-------------------|------3------------|
|-9~~-------------|-------------------|------3----3-------|
|-9---------------|-------------------|------0----2-------|
|-9---------------|-----------2-----2-|-2----0----0-------|
|-----------------|-----------0-PH--0-|-2-----------------|
|-----0-0-0-0-0-0-|-0-0-0-0-3---3^----|-0----3------------|
                                     "Walk that walk"
|---------------|-------------/15~~~-|--------------------|
|---------------|-------------/14----|-------------3------|
|-2-2-2-2-2-2-2-|-7---5---2---/14----|-7--5--2-----0------|
|-2-2-2-2-2-2-2-|-7---5---2----------|-7--5--2-----0------|
|-0-0-0-0-0-0-0-|-5---3---0----------|-5--3--0------------|
|---------------|--------------------|---------3-3-3------|
                   "Talk that talk"
|----------/15~~--|---------------|
|----------/14----|-------------3-|
|-7--5--2--/14----|-7--5--2-----0-|
|-7--5--2---------|-7--5--2-----0-|
|-5--3--0---------|-5--3--0-------|
|-----------------|---------3-3-3-|

Interlude:
|-------------------release---------------------|
|--------------15^----^----^--------------------|
|-4------------------------------12h14p12-------|
|-4----------------------------------------14---|
|-2-----PH--------------------------------------|
|-------3~~~------------------------------------|

|---------------|--------------|-10--10--10---|10-10-10---|
|-------------7-|--/9----------|---10--10--10-|--9--9--9--|
|-------------7-|--/9----------|--------------|-----------|
|----9-9-7--5-7-|--/9----------|--------------|-----------|
|---------------|--------------|--------------|-----------|
|---------------|--------------|--------------|-----------|

|-9---9---9---|-x\-------|---------------------------|
|---8---8---8-|-x\\-PS---|-9-\-7-7~~~~~~~~~~~~~~~~~--|
|-------------|---\\-----|-9-\-7-7-------------------|
|-------------|----\\----|-9-\-7-7-------------------|
|-------------|-----\\---|-7-\-5-5-------------------|
|-------------|------\\--|---------------------------|

|----------------0--|-------------------------------------|
|----------------0--|----------9-\-7-7~~~~~~~~~~~~~~~~~~--|
|-----2--------4-4--|----------9-\-7-7--------------------|
|-----2--------2----|----------9-\-7-7--------------------|
|-----0----2--------|----------7-\-5-5--------------------|
|-3-3---3^-0--------|-------------------------------------|

Solo:
|--------------------------|------------------------------|
|--------------------------|-----9---12--10--7------------|
|-7-7-7-7----7-7-7-7-------|-9-----------------7~~7~~~~~--|
|---------9----------9~~~~-|---9---9---9---9--------------|
|-------------------PH-----|------------------------------|
|--------------------------|------------------------------|

|-----------------------------|-tap-----------------|
|-----------------------------|---------------PH----|
|-7-7-7-7----7-7-7-7---11p9p7-|-21^^^^^^(9)-7-9~~~--|
|---------9----------9--------|---------------------|
|-----------------------------|---------------------|
|-----------------------------|---------------------|

|-------------------------------------|--------------------------15^-|
|---10^-10--12^-12-10-15^--15-12--15^-|-15-12---15^-15-12--15^-x-----|
|---------9---------------------14----|------14----------14----------|
|-------------------------------------|------------------------------|
|-------------------------------------|------------------------------|
|-------------------------------------|------------------------------|

|--14-13-12-15^--14-|-13-12----------------|
|-------------------|-------14^--12~~~~----|
|-------------------|--------------------8-|
|-------------------|----------------------|
|-------------------|----------------------|
|-------------------|----------------------|

|-10p7-------10p7-------10p7-------10p7--------|
|-----10p7-------10p7-------10p7-------10p7----|
|---------9p7--------9p7--------9p7--------9p7-|
|----------------------------------------------|
|----------------------------------------------|
|----------------------------------------------|

|-10p7-------10p7--------------|--------------------------------------|
|-----10p7-------10p7----------|--------------------------------------|
|---------9p7--------9p7-9~~~~-|-------------------------------797979-|
|------------------------------|-797979-911911911-111211121112--------|
|------------------------------|--------------------------------------|
|------------------------------|--------------------------------------|

|----------------------|-------------------|--------------|
|----------------------|-Pinch Harm.-------|--P.H.--------|
|-11911911-12^--12~~~~-|-------------------|--------------|
|----------------------|-------------------|--------5-----|
|----------------------|-5-----5-----7-----|----7---------|
|----------------------|----7-----5-----4--|-7------------|

|---------------------------|----------------x\-----------|
|------------PH------PH-----|----------------x\\----------|
|-----------(1/2)-----------|------------------\\---------|
|--full--------------full---|-------------------\\--------|
|--7^--------7^------5^-----|-2h5p2h5p2h5p2------\\-------|
|---------------------------|---------------------\\------|


Song 11  No More Tears

Intro
  Q=104
 4/4
  Gtr II
  Wx6          E  Q    E  H       H    Q  E  E
|------------|---10\--13s14\----|---------------|
|------------|---10\--13s14\----|---------------|
|------------|--------13s14\----|-----------15\-|
|------------|------------------|-----------15\-|
|------------|------------------|---------------|
|------------|------------------|---------------|


   W           H    E Q   E    H     H      W
|------------|--------------|-------------|------|
|------------|--------------|-------------|------|
|-14\--------|--------8s=12s|=10\---------|------|
|-14\--------|--------8s=12s|=10\---------|------|
|------------|--------------|-------------|------|
|------------|--------------|-------------|------|


                                                   ~~~
  Q  H      Q      H     Q   E  E    +E   E  E  E  Q.   E
|--------------||-----------------|------------------------|
|--------------||o----------------|------------------------|
|----3/----10--||--7----12S=11S12-|-(12)-11-------------7s=|
|----3/----10--||--7--------------|---------12----10----7s=|
|--------------||o----------------|------------12-10-------|
|--------------||-----------------|------------------------|


                                                  Verse
                                 Gtrs I, II
   ~~                ~~
   H     +E  Q.      Q   H.          E E Q  H      Wx2
|-----------------|-----13\-------||-------------|--------|
|-----------------|-----13\------o||-------------|--------|
|-10----(10)-7----|-12------------||-------------|--------|
|-10----(10)-7----|-12------------||-0-----------|--------|
|-----------------|--------------o||-0-----------|--------|
|-----------------|---------------||-0-----------|--------|


  $
  Gtr I
                                                ~~~
  H    E E E E   Q  E E E E E E   +Q   E E E E +Q     E E Q  H
|--------------|----------------|-------------------|-------------|
|--------------|----------------|-------------------|-------------|
|--------------|----------------|-------------------|-------------|
|--------------|-6------------6-|-(6)---------------|-0-----------|
|--------0-3-0-|-6--5-3-5-3---6-|-(6)--5------------|-0-----------|
|--------0-3-0-|-6--5-3-5-3-0-6-|-(6)--5-3-5-3-(3)--|-0-----------|


                                     ~~
  H    E E   E E    Q   E  E  E  Q   E    +Q    E  E  E  Q.       E E Q  H
|----------------|---------------------|----------------------||--------------|
|----------------|---------------------|----------------------||o-------------|
|--------0-/10-0-|-13--12-10-12-10--13-|-(13)--12-10-12-10\---||--------------|
|--------0-/10-0-|-13--12-10-12-10--13-|-(13)--12-10-12-10\---||--0-----------|
|----------------|---------------------|----------------------||o-0-----------|
|----------------|---------------------|----------------------||--0-----------|


                                                ~~~
  H    E E E E   Q  E E E E E E   +Q   E E E E +Q     E E Q  H
|--------------|----------------|-------------------|-------------|
|--------------|----------------|-------------------|-------------|
|--------------|----------------|-------------------|-------------|
|--------------|-6------------6-|-(6)---------------|-0-----------|
|--------0-3-0-|-6--5-3-5-3---6-|-(6)--5------------|-0-----------|
|--------0-3-0-|-6--5-3-5-3-0-6-|-(6)--5-3-5-3-(3)--|-0-----------|


                                                                Pre-Chorus
                                     ~~~~~~~~~
  H    E E   E E    Q   E  E  E  Q   E    +Q    E  E  E  Q.      H    E E E E
|----------------|---------------------|----------------------||--------------|
|----------------|---------------------|----------------------||------------5-|
|--------0-/10-0-|-13--12-10-12-10--13-|-(13)--12-10-12-10\---||------------4-|
|--------0-/10-0-|-13--12-10-12-10--13-|-(13)--12-10-12-10\---||-0----------2-|
|----------------|---------------------|----------------------||-0----------2-|
|----------------|---------------------|----------------------||-0----0-0-0-2-|


                                                  |-3-| |-3-| |-3-| |-3--|
  +Q   E E E E E S S   Q  E E E E E E   +Q.   S S S S S S S S S S S S S +S
|--------------------|----------------|--------------------------------------|
|-(5)----------------|-6--------------|--------------------------------------|
|-(4)----------------|-5------------3-|-(3)-------3h5p3h5p3h5p3h5p3h5p3-(3)--|
|-(2)----------------|-3------------3-|-(3)---3S5----------------------------|
|-(2)----------------|-5------------1-|-(1)----------------------------------|
|-(2)--0-0-0-0-0-0-0-|-3--0-0-0-0-0---|--------------------------------------|


  H    E E E E   +Q   E E E E E S S
|--------------|--------------------|
|------------5-|-(5)----------------|
|------------4-|-(4)----------------|
|-0----------2-|-(2)----------------|
|-0----------2-|-(2)----------------|
|-0----0-0-0-2-|-(2)--0-0-0-0-0-0-0-|


                     |-3-| |-3--|
  Q  E E E E E E   E S S S S S +S  E +H
|----------------|---------------------------|
|-6--------------|---------------------------|
|-5------------3-|-3-3h5p3h5p3-(3)-4-(4)\----|
|-3------------3-|-3---------------4-(4)\----|
|-5------------1-|-1-------------------------|
|-3--0-0-0-0-0---|---------------------------|


                               Chorus
  ~~
  H.      Q      Q   H.         E Q  E Q  E E   +E  E Q  E E E E
|-------------|-----13\------||---------------|------------------|
|-9-----------|-10--13\------||---------------|------------------|
|-9-------5/--|-10-----------||---7----5----4-|-(4)---3----------|
|-9-------5/--|-10-----------||-0----0----0---|-----0-3----------|
|-------------|--------------||---------------|----------5-6-5-3-|
|-------------|--------------||---------------|----------5-6-5-3-|


  E Q  E Q  E E   +E  E Q  E E E E   E Q  E Q  E E   +E  E Q  E E E E
|---------------|------------------|---------------|------------------|
|---------------|------------------|---------------|------------------|
|---7----5----4-|-(4)---3----------|---7----5----4-|-(4)---3----------|
|-0----0----0---|-----0-3----------|-0----0----0---|-----0-3----------|
|---------------|----------5-6-5-3-|---------------|----------5-6-5-3-|
|---------------|----------5-6-5-3-|---------------|----------5-6-5-3-|


                                 To Coda
  E Q  E Q  E E   +E  E Q  E E E E
|---------------|-------------------||
|---------------|------------------o||
|---7----5----4-|-(4)---3-----------||
|-0----0----0---|-----0-3-----------||
|---------------|----------5-6-5-3-o||
|---------------|----------5-6-5-3--||


  W          +W           +W           W
|----------|------------|------------|------||
|----------|------------|------------|------||
|----------|------------|------------|------||
|-0--------|-(0)--------|-(0)--------|------||
|-0--------|-(0)--------|-(0)--------|------||
|-0--------|-(0)--------|-(0)--------|------||


 Interlude
  Q=76
              3/4        4/4
  Wx4          W          Wx4
|------------|----------|--------||
|------------|----------|--------||
|------------|----------|--------||
|------------|----------|--------||
|------------|----------|--------||
|------------|----------|--------||


 Guitar Solo
   ~~
   H     E.  S  +E   E    A     +Q    Q   Q  Q     H     +E   E     +E   S  S
|----------------------|------------------------|-----------------------------|
|-------------------10-|------------------------|-----------------------------|
|-11----11--12-(12)----|-12b14-(14)--12--11--9--|-10----(10)-12b14-(14)-12p10-|
|----------------------|------------------------|-----------------------------|
|----------------------|------------------------|-----------------------------|
|----------------------|------------------------|-----------------------------|


                                   ~~
   A     +H      Q   E     S  S    H     S  E.  +E   E
|-------------------------------|----------------------|
|-------------------------------|-------------------10-|
|-12b14-(14)----12--12b14-12p10-|-11----11-12--(12)----|
|-------------------------------|----------------------|
|-------------------------------|----------------------|
|-------------------------------|----------------------|


   a     +H.       +S   E     T  T    a     +H.       E     S  S
|----------------------------------|-----------------15b17-15p13---|
|-13b15-(15)------(15)-15b17-15p13-|-15b17-(17)--------------------|
|----------------------------------|-------------------------------|
|----------------------------------|-------------------------------|
|----------------------------------|-------------------------------|
|----------------------------------|-------------------------------|

   E     A     +Q.      A     +Q     A     +Q
|-15b17-15b17-(17)-----15b17-(17)---15b17-(17)---|
|------------------------------------------------|
|------------------------------------------------|
|------------------------------------------------|
|------------------------------------------------|
|------------------------------------------------|
|
| Gtr II
|  E            E  E E         E  E         E  E  E
|------------------------------------------------|
|------------------------------------------------|
|------------------------------------------------|
|--5------------5--5-5---------5--5---------5--5-|
|--5------------5--5-5---------5--5---------5--5-|
|--5------------5--5-5---------5--5---------5--5-|

            ~~~~
   a     +Q     a     +Q     S     S  S  S  E.   S
|-15b17-(17)---15b17-(17)---15b17-15-13-14-------x-|
|--------------15b17-(17)------------------15----x-|
|--------------------------------------------------|
|--------------------------------------------------|
|--------------------------------------------------|
|--------------------------------------------------|
|
|
|         E  E         E  E  E        E     E  E
|--------------------------------------------------|
|--------------------------------------------------|
|--------------------------------------------------|
|---------5--5---------5--5--5--------5-----5--5---|
|---------5--5---------5--5--5--------5-----5--5---|
|---------5--5---------5--5--5--------5-----5--5---|

 a tempo Q=104
   a     +Q    S  S  S  S     +S   S  S  S  S   S  S  S
|-------------10------------------10--------------------|
|-13b15-(15)-----13-10----------------------------12----|
|----------------------12b14-(14)----12-12-10-----12----|
|----------------------------------------------12----12-|
|-------------------------------------------------------|
|-------------------------------------------------------|
|
|         Q    Q               E      E    +E      E
|-------------------------------------------------------|
|-------------------------------------------------------|
|-------------------------------------------------------|
|---------3----3---------------5------3----(3)-----0----|
|---------3----3---------------5------3----(3)-----0----|
|---------3----3---------------5------3----(3)-----0----|


                    |---3---|
   E       S  S  S  S  S    S  S  S  S  S     +S   Q
|-----------------------------------------------------|
|-10b10.5------------------------12----10----(10)-----|
|-10---------------13-12---10----12----10b11-(11)-----|
|---------12-10-12------------12----12------------12--|
|-----------------------------------------------------|
|-----------------------------------------------------|
|
| +Q             E       E        E     E          Q
|-----------------------------------------------------|
|-----------------------------------------------------|
|---------------------------------5-------------------|
|-(0)------------0----------------5-----0----------0--|
|-(0)------------0----------------3-----0----------0--|
|-(0)------------0-------0--------------0----------0--|


   |--3--|
   S  S  S  S  S S  S  S  S  S  S  S     +S   S   S  E
|------------------------------------------------------|
|-------------12------------12----10----(10)--------13-|
|-13p12p10----12---12-10----12----10b11-(11)-----------|
|----------12------------12----12------------12--10----|
|------------------------------------------------------|
|------------------------------------------------------|
|
|  Q             Q           E     E         +E      E
|------------------------------------------------------|
|------------------------------------------------------|
|------------------------------------------------------|
|--3-------------3-----------5-----3---------(3)-----0-|
|--3-------------3-----------5-----3---------(3)-----0-|
|--3-------------3-----------5-----3---------(3)-----0-|


        |--3--|           |--3--|
   +E   S  S  S  S     S  S  S  S       S  S     S  S  S  S  E
|------10-------------10---------------------------------------|
|-(13)----13-10----------13p10---------10----------------------|
|---------------12b14----------12b12.5----12b14-12p10-12p10----|
|-----------------------------------------------------------12-|
|--------------------------------------------------------------|
|--------------------------------------------------------------|
|
|  +Q            E        E             E        E     Q
|--------------------------------------------------------------|
|--------------------------------------------------------------|
|---------------------------------------5----------------------|
|--(0)-----------0----------------------5--------0-----0-------|
|--(0)-----------0----------------------3--------0-----0-------|
|--(0)-----------0--------0----------------------0-----0-------|


   a     +Q.     S     S  S  S  S  S  S     S  S  S
|-15b17-(17)----15b17-15-13----15----13b14-13----15b17--|
|---------------------------15----15----------15--------|
|-------------------------------------------------------|
|-------------------------------------------------------|
|-------------------------------------------------------|
|-------------------------------------------------------|
|
|         Q   Q           E     E    +E        E
|-------------------------------------------------------|
|-------------------------------------------------------|
|-------------------------------------------------------|
|---------3---3-----------5-----3----(3)-------0--------|
|---------3---3-----------5-----3----(3)-------0--------|
|---------3---3-----------5-----3----(3)-------0--------|


   +S   S  S     S  a     +Q     S     S  S     S  Q
|-(17)----15b17----15b17-(17)---15b17-15-13b14-13-----|
|------15-------15--------------------------------15--|
|-----------------------------------------------------|
|-----------------------------------------------------|
|-----------------------------------------------------|
|-----------------------------------------------------|
|
|   Q                      E  E  E        E        Q
|-----------------------------------------------------|
|-----------------------------------------------------|
|--------------------------------5--------------------|
|---0----------------------0-----5--------0--------0--|
|---0----------------------0-----3--------0--------0--|
|---0----------------------0--0-----------0--------0--|


   |--3--|  |--3--|  |--3--|  |--3--|  |--3--|  |--3--|  |--3--|  |--3--|
   S  S  S  S  S  S  S  S  S  S  S  S  S  S  S  S  S  S  S  S  S  S  S  S
|-13-10-13-10-------13-10-13-10-------13-10-13-10-------13-10-13-10--------|
|-------------13-10-------------13-10-------------13-10-------------13-10--|
|--------------------------------------------------------------------------|
|--------------------------------------------------------------------------|
|--------------------------------------------------------------------------|
|--------------------------------------------------------------------------|
|
|  W
|--------------------------------------------------------------------------|
|--------------------------------------------------------------------------|
|--------------------------------------------------------------------------|
|--3-----------------------------------------------------------------------|
|--3-----------------------------------------------------------------------|
|--3-----------------------------------------------------------------------|


   |--3--|  |--3--|  |--3--|  |--3--|  |--3--|  |--3--|  |--3--|  |--3--|
   S  S  S  S  S  S  S  S  S  S  S  S  S  S  S  S  S  S  S  S  S  S  S  S
|-15-13-15-13-------15-13-15-13-------15-13-15-13-------15-13-15-13-------|
|-------------15-13-------------15-13-------------15-13-------------15-13-|
|-------------------------------------------------------------------------|
|-------------------------------------------------------------------------|
|-------------------------------------------------------------------------|
|-------------------------------------------------------------------------|
|
|  W
|-------------------------------------------------------------------------|
|-------------------------------------------------------------------------|
|-------------------------------------------------------------------------|
|--5----------------------------------------------------------------------|
|--5----------------------------------------------------------------------|
|--5----------------------------------------------------------------------|


   |--3--|  |--3--|  |--3--|  |--3--|  |--3--|  |--3--|  |--3--|  |--3--|
   S  S  S  S  S  S  S  S  S  S  S  S  S  S  S  S  S  S  S  S  S  S  S  S
|-17-15-17-15-------17-15-17-15-------17-15-17-15-------17-15-17-15-------|
|-------------18-15-------------18-15-------------18-15-------------18-15-|
|-------------------------------------------------------------------------|
|-------------------------------------------------------------------------|
|-------------------------------------------------------------------------|
|-------------------------------------------------------------------------|
|
|  W
|-------------------------------------------------------------------------|
|-------------------------------------------------------------------------|
|--2----------------------------------------------------------------------|
|--2----------------------------------------------------------------------|
|--0----------------------------------------------------------------------|
|-------------------------------------------------------------------------|


   T  T  T  T  T  T  T  T  T  T  T  T  T  T  T  T  T  T  T  T  T  T  T  T  T  T  T  T  T  T  T  T
|-18-15-13----18-15-13----18-15-13----18-15-13----20-17-15----20-17-15----20-17-15----20-17-15----|
|----------15----------15----------15----------15----------17----------17----------17----------17-|
|-------------------------------------------------------------------------------------------------|
|-------------------------------------------------------------------------------------------------|
|-------------------------------------------------------------------------------------------------|
|-------------------------------------------------------------------------------------------------|
|
|  H                                               H
|-------------------------------------------------------------------------------------------------|
|-------------------------------------------------------------------------------------------------|
|--3-----------------------------------------------5----------------------------------------------|
|--3-----------------------------------------------5----------------------------------------------|
|--1-----------------------------------------------3----------------------------------------------|
|-------------------------------------------------------------------------------------------------|


  W
|-------------||
|-------------||
|-------------||
|-------------||
|-------------||
|-------------||
|
| E E Q  H
|-------------||
|-------------||
|-7-----------||
|-7-----------||
|-5-----------||
|-------------||


  Gtr II
  Wx3          H    E Q.     H    Q   E E
|------------|-------------|----------------|
|------------|-------------|-7----8\--7-8---|
|------------|--------5\---|-7--------------|
|------------|--------5\---|-7--------------|
|------------|-------------|----------------|
|------------|-------------|----------------|


                                                  D.S. al Coda
            ~~~~~~~~~~~~~~~~~~            ~~~
  +E  E E E H       H     +Q.   E     Q   Q   E q  E
|----------------|-----------------|-----15\---------||
|-(8)-7----------|-----------------|-----15\---------||
|-------7---5----|-10----(10)---9\-|-12--------------||
|---------7-5----|-10----(10)---9\-|-12------------0-||
|----------------|-----------------|---------------0-||
|----------------|-----------------|---------------0-||


   Outro
    &
    Gtr I
    Q  E E Q  E E   +E  E Q  E E E E  3x W
||----------------|-------------------||------*|
||o---------------|------------------o||------*|
||-----7---5----4-|-(4)---3-----------||-2----*|
||--0----0----0---|-----0-3-----------||-0----*|
||o---------------|----------5-6-5-3-o||-0----*|
||----------------|----------5-6-5-3--||-0----*|


Song 12 Mama Im Comming Home

INTRO:
e--12--------------|
B----12------------|
G--------13/11--9--|
D------------------|
A------------------|
E-----------------0|

e---0-------0-------0-----0--------0-----0--------0-----0------|
B----0-------0-------0-----0--------0-----0--------0------0----|
G-9-------8------8-6-----4-----4-2------1-----1----------------|
D----------------------------------------------4------2--------|
A--------------------------------------------------------------|
B------------------------------------------------------------0-|


e|--0-------0-------0-----0--------0-----0--------0-----0------|
B|----0-------0-------0-----0--------0-----0--------0-----0----|
G|9-------8------8-6-----4-----4-2------1-----1----------------|
D|---------------------------------------------4------2--------|
A|-------------------------------------------------------------|
E|-----------------------------------------------------------0-|


e----------0---------0-------0-------0--------0---0--0--------0---0--0-----|
B--------------0-------0-------0-------0--------0-0----0--------0-0----0---|
G-------9---------8------8-6-----4-------4-2------1------1--------1--------|
D---------------------------------------------------------4-------2--------|
A--------------------------------------------------------------------------|
E-0-----------------------------------------------------------------------0|


VERSE:

e----------0---------0-------0-------0--------0---0--0--------0---0--0-----|
B--------------0-------0-------0-------0--------0-0----0--------0-0----0---|
G-------9---------8------8-6-----4-------4-2------1------1--------1------1-|
D---------------------------------------------------------4-------2--------|
A--------------------------------------------------------------------------|
E-0------------------------------------------------------------------------|


e---------0-------------0-------|--------0-------------0-------0------|
B-----------0-------------0-----|---0----------0---------0-------0----|
G------2------2-------2-----2---|------1---------1--1/2-----2/4-------|
D----2---------2----2---------2-|-2-----------------------------------|
A--0--------------0-------------|-------------------------------------|
E-------------------------------|-------------------------------------|

Pre-Chorus :1

e-4---4---X---5----5----|-0---0---------0---0----=0--------|
B-5---5---X---5----5--x-|-0---0--x---x--0---0--x-=0--x--x--|
G-6---6---X---6----6--x-|-1---2--X---X--1---2--x-=1--x--x--|
D-6---6---X---7----7--x-|-2---2--X---X--2---2--x-=2--x--x--|
A-4---4---X---7---------|-2---2---------2---2-----=--------|
E-------------5---------|-0---0---------0---0--------------|


e--4----4-----5---5------------7---------------7--------|
B--5----5--x--5---5---x----------7--------------7-------|
G--6----6--x--6---6---x------------8-------------8------|
D--7----7--x--7---7---x-----9---------9------9-----9----|
A--4----------7-----------9-------------9---9--------9--|
E-------------5---------7-----------------7-------------|

Pre-chorus :2
e----------------------|---------------------------------------|
B----------------------|---------------------------------------|
G---6---6----2---------|---------------------------------------|
D---6---6----2---------|-2-------------------------------------|
A---4---4----0---------|-2-----[4]----[4]--[4]-----------------|
E------------------}0{-|-0--0------}0{---0----}0{-4--5--4--0---|

e-------------------|------------------------------------|
B-------------------|------------------------------------|
G---6----------2----|--4-----------4----------4----------|
D---6----x--x--2----|--4-----------4----------4----------|
A---4----x--x--0----|--2--}2{-}2{--2--}2{-}2{-2----------|
E-------------------|----------------------------2---4---|

Pre Chorus :3
e------0---------|------------------------|--------|
B------2---------|------------------------|--------|
G--2---2---------|--2-1-------------------|--2-----|
D--2---2---------|--2-2--4----4--4---4--2-|--2-----|
A--0---0---------|--2-2--2----2--2---2----|--0-----|
E----------------|--0-0--0----0--0--------|--------|

e---------------|--------------|-0---------------------------|
B---------------|--------------|-0---------------------------|
G-2-X-----------|-2---4--------|-9---------------2-----------|
D-2-X--2--------|-2---4---X----|-9-------X-------2-----------|
A-2-0--2--------|-0---6-----X--|-7-------X-------0-----------|
E-0----0--2---4-|-----7--------|-----------------------------|


Chorus:
e------------------|---------------|------------------|
B------------------|---------------|------------------|
G--2-------4-------|--5---------7--|--2----2-2--------|
D--2-------4-------|--5---------7--|--2----2-2--------|
A--0-------2-------|--3---------5--|--0----0-0--------|
E------------------|---------------|--------------19\-|

e--------------|-------------------|
B--------------|-------------------|
G--5-----7-----|-------------------|
D--5-----7-----|-------------------|
A--3-----5-----|--9-9-9-9-9-9-9\---|
E--------------|--7-7-7-7-7-7-7\---|

Interlude:

e--3-----5-------0-------12*-|----------------------|------0----------|
B--3-3---5---------0-----12*-|-------------------9--|-0----0--0-------|
G--4---4-6--6/--------13-----|-12-11--9----9--11----|-----------1-----|
D--5-----7-------------------|----------12----------|----2--------2---|
A----------------------------|----------------------|---------------2-|
E----------------------------|----------------------|-----------------|

e-3------5-----------12---|----------------------|
B---3------5---0----------|----------------------|
G-----4------6/---13------|----------------------|
D-------------------------|-9-9-9-9-9-9-9----9---|
A-------------------------|-9-9-9-9-9-9-9----9---|
E-------------------------|-7-7-7-7-7-7-7----7---|

Guitar Solo:

e----------------------12-----12--------|--------------------------|
B----------------------12p14--12p14--10-|-12tr--10---10h12r10--9tr-|
G-------9----9--11p13-------------------|--------------------------|
D--9h11---11----------------------------|--------------------------|
A---------------------------------------|--------------------------|
E---------------------------------------|--------------------------|


e----------------------12-----12--------|--------------------------|
B----------------------12p14--12p14--10-|-12tr--10---10h12r10--9tr-|
G-------9----9--11p13-------------------|--------------------------|
D--9h11---11----------------------------|--------------------------|
A---------------------------------------|--------------------------|
E---------------------------------------|--------------------------|

e---------------------------------------|
B---------------------------------------|
G------9----9--9tr---11p13--9---11tr--9-|
D-9h11---11-----------------------------|
A---------------------------------------|
E---------------------------------------|

e------------------------------------------|
B-19p21--19p21-17h19r17tr-19p21--19p21--17-|
G-19p21--19p21-----------------------------|
D------------------------------------------|
A------------------------------------------|
E------------------------------------------|

e----------16--17--18--19--19p21--------------------|
B-19tr---------------------------19p21--17----------|
G-------------------------------------------18------|
D---------------------------------------------------|
A---------------------------------------------------|
E---------------------------------------------------|

Outro:

e---0-------0-------0-----0--------0-----0--------0-----0------0--|
B----0-------0-------0-----0-----------------------0------0----0--|
G-9-------8-------6-----4------2------1----2----------1--------1--|
D-----------------------------------------------------------4--2--|
A--------------------------------------------------------------2--|
B--------------------------------------------------------------0--|


Song 13 I Dont Want To Change The World

Tune down 1/2 step: Eb Ab Db Gb Bb Eb


|-------|-----------------------------|----------------------------|
|-------|-----------------------------|----------------------------|
|-------|-----------------------------|---------------2--"Huh!"----|
|-------|-0h2-----0h2-------------5/7-|-0h2-----2p0---2------------|
|-x/17\-|-0---0-0-0---0-0-0-0-3p0-3/5-|-0---0-0-0-----0------------|
|-------|-----------------------------|-------------3--------------|

2nd time:
|-----------------------------|------------------------------------|
|-----------------------------|------------------------------------|
|-----------------------------|------------------------------------|
|-0h2-----0h2-------------5/7-|-0h2-----2p0-----PH--PH-------------|
|-0---0-0-0---0-0-0-0-3p0-3/5-|-0---0-0-0---0-0-5~~-3~~------------|
|-----------------------------|------------------------------------|

"I don't wanna change the world..."
|------------------------------------------------------------------|
|----------3---3----------------------3-----3----------------------|
|-2--------2---0----------------------0-----2-------------2--------|
|-2--------0---0------------------0---0-----0-------------2--------|
|-0-----------------------------------------0-----0-------0--------|
|--------0-2---3------------------2---3--------------3-------------|

|----------------------------------||2nd time:---------------------|
|----------17----------------------||-------8----------------------|
|-------16^--^16-14----------------||----10^-^10^-^10^-^10^~~~~~---|
|-14-14-------------16-14----------||------------------------------|
|-------------------------16-14----||------------------------------|
|-------------------------------17-||------------------------------|

"You know it ain't easy...."
|-----------------------------|------------------------------------|
|-----------------------------|------------------------------------|
|-----------------------------|---------------4---2----------------|
|-----------------------------|---------------4---2----------------|
|---4--4-4-----4----4---4-4-4-|----4--4-4-----2---0----------------|
|-0-2--2-2-0-0-2--0-2---2-2-2-|-0--2--2-2-0-0----------------------|

Guitar Solo:
|-----------------------------------------|-15-----------------------|
|-----8-----8-------10^-^10-8---10---8~~~-|---15---------------------|
|-8h9---8h9---8h9p8-----------9----9------|-----14^-^14-12----12-14^-|
|-----------------------------------------|----------------14--------|
|-----------------------------------------|--------------------------|
|-----------------------------------------|--------------------------|

--15-------17^~~~~(17)\-|------17------17------17-----(17)-----------|
------------------------|-17^-----17^-----17^-----17^-----17^-^17p15-|
-----14-12--------------|--------------------------------------------|
------------------------|--------------------------------------------|
------------------------|--------------------------------------------|
------------------------|--------------------------------------------|

|-17----16----15----14----15------------|
|----14----14----14----14---------PH----|
|----------------------------16^--14~~~-|
|---------------------------------------|
|---------------------------------------|
|---------------------------------------|

|-PM..........------PM..........-------|-----------------------------------------|
|-------------PH~~~~------------PH~~~~-|-----------------------------------------|
|-------------5-----------------7------|-------------------------------------14~-|
|-5-6-7-5-6-7-------7-8-9-7-8-9--------|-7-8-9-7-8-9-121314121314141516141516----|
|--------------------------------------|-----------------------------------------|
|--------------------------------------|-----------------------------------------|

|-------------------/=========\-------------------|
|----------------T-/-----------\------------------|
|-16^--^(16)p14-21^-(21)-p-4----(4)-2h4-2~~~~~~~~-|
|-------------------------------------------------|
|-------------------------------------------------|
|-------------------------------------------------|

|--------------------------------------|----------------------|
|----5-----5-----5----5--3-~~~-----(0)-|---7---7---7---7---5--|
|-7^----7^----7^---7^----5^-----x\-(0)-|-9^--9^--9^--9^--7^---|
|--------------------------------------|----------------------|
|--------------------------------------|----------------------|
|--------------------------------------|----------------------|

|-------|---------------------|--------------1215-171512------171512-|
|-5--5--|---5---5---5---5---3~~~~~---------15-----------151215-------|
|-7--5--|-7^--7^--7^--7^--5^--|-----x\-------------------------------|
|-------|---------------------|--------------------------------------|
|-------|---------------------|--------------------------------------|
|-------|---------------------|---------(0)--------------------------|

These are 20's, 21's and 22's...not 1's, 2's and 0's...

--------171512------171512----------201715------201715------2220---------|
-151215-------151215------17-15/1717------201720------201720----22222022-|
-------------------------------------------------------------------------|
-------------------------------------------------------------------------|
-------------------------------------------------------------------------|
-------------------------------------------------------------------------|

-222017----------|-------------------------------------------------|
--------22-20-22-|-------------------------------------------------|
-----------------|-------------------------------------------------|
-----------------|-------------------------------------------------|
-----------------|-------------------------------------------------|
-----------------|-------------------------------------------------|

"Don't tell me stories cause yesterays's glories..."
|-------0---------------------------------5---------------0--------|
|-----------0--------3---5---3--------3-------3--------------0-----|
|-----6-------6----------------0----------------0-------6------6---|
|---7-----------7--5---5---------5--4---4---------4---7----------7-|
|-0-------------------------------------------------0--------------|
|------------------------------------------------------------------|


Song 14  I Just Want You

|----------------|---0-------------|
|--3-----2-------|-----0---------3-|
|----4-----2-----|-------0-----4---|This is the main
|------4-----2---|-----------4-----|progression, just
|2---------------|---------2-------|play it over and over
|----------------|-0---------------|

"I don't ask much, i just want you..."
|-0---------|-------------------------------------------|
|-0----0-3--|-------------------------------------------|
|-0---------|-4--4----2-2--2----------------------------|
|-2---------|-4--4----2-2--2-----2---2------------------|
|-2---------|-2--2----0-0--0-----2---2-----4^---~~~~-0--|
|-0---------|-------3^-------2^--0---0---0--------------|

"I'm sick and tired of being sick and .."
|---0---0---0---0-|---0---0---0---0-|---0---0---0---0-|---0---0---0---0-|
|---0---0---0---0-|---0---0---0---0-|---0---0---0---0-|---0---0---0---0-|
|-------------2---|-4---6---7---9---|-11--9---7---6---|-7---6---4---2---|
|-2---4---5-------|-----------------|-----------------|-----------------|
|-----------------|-----------------|-----------------|-----------------|
|-----------------|-----------------|-----------------|-----------------|

SOLO:
|---------------------|------------------------------|------|
|---------------------|---10----15/19^-19-17---------|------|
|------------------7~-|/11---/16-------------19^--16-|------|
|-------------7/9~----|------------------------------|------|
|------5-7~/9---------|------------------------------|------|
|-5h7~----------------|------------------------------|------|

|-------------------------|--------------------------------------|
|-17^-17^-17^-17^--15-----|-17^-^-^-^-^-^17-15----17-15-17^-15---|
|---------------------16~-|--------------------16-------------16-|
|-------------------------|--------------------------------------|
|-------------------------|--------------------------------------|
|-------------------------|--------------------------------------|

|--------------------------|-------7----7-------------|-----|
|--------------------------|----10--------------------|-----|
|-------7-------9^-^9p7-9^-|-9^-----9^----9~-7--9-7---|-----|
|-----7----7-9~------------|------------------------9-|-----|
|-7h9----------------------|--------------------------|-----|
|--------------------------|--------------------------|-----|

|-10^-7-----7----------------|------------------------------|
|----------------------------|------------------------------|
|-------10----9~--7-9-9p7----|------------------------------|
|-------------------------9~-|------------------------------|
|----------------------------|------------------------------|
|----------------------------|------------------------------|

|------7------7------7------7------7----|-7-7-7------7------7------7------7---|
|-7-10---7-10---7-10---7-10---7-10---10-|-------7-10---7-10---7-10---7-10---7-|
|---------------------------------------|-------------------------------------|
|---------------------------------------|-------------------------------------|
|---------------------------------------|-------------------------------------|
|---------------------------------------|-------------------------------------|

|---------------------------------------|--------------------------------------------|
|---------------------------------------|--------------------------------------------|
|---------------------------------------|--------------------------------------------|
|---------3/4--4-4--4/5--5-5--5/7--7-7--|-7/9-9-9-9/11-11-11-11/12-12-12-12/14-14-14-|
|---------xh---x-x--xh---x-x--xh---x-x--|-xh--x-x-xh---x--x---xh----x--x--xh----x--x-|
|-0--0-0--1/2--2-2--2/3--3-3--3/5--5-5--|-5/7-7-7-7/9--9--9---9/10-10-10-10/12-12-12-|

|-10-7----7-------------------------------------------|
|------10---10-7-10-7----7----------------------------|
|---------------------10---10-7-9-7---7---------------|
|-----------------------------------9---9-7-9-7---7---|
|-----------------------------------------------9-----|
|-----------------------------------------------------|
|                                                     |
|-----------------------------------------------------|
|-----------------------------------------------------|
|-----------------------------------------------------|
|-14/16--16-16--16\14--14-14--14\12--12-12\11-11-11---|
|--xh-----x--x---xp-----x--x---xp-----x--x-x--x--x----|
|-12/14--14-14--14\12--12-12--12\10--10-10\9--9--9----|

|-10-7----7-------------------------------------------------|
|------10---10-7-10-7----7----------------------------------|
|---------------------10---10-7-9-7---7---------------------|
|-----------------------------------9---9-7-9-7---7---------|
|-----------------------------------------------9-----------|
|-----------------------------------------------------------|
|                                                           |
|-----------------------------------------------------------|
|-----------------------------------------------------------|
|-----------------------------------------------------------|
|--11\9--9-9--9\7--7-7--7/9--9-9--9-\-8-/-9-----------------|
|-----------------------------------------------------------|
|---9\7--7-7--7\5--5-5--5/7--7-7--7-\-6-/-7-----------------|

|---------------------|--------------------------|------------------------------|
|---------------------|-10^~~-12^~~-13^~~-15^~~--|-17^~~-17-15------------------|
|-2^~~-4^~~-5^~~-7^~~-|--------------------------|-------------14/16------------|
|---------------------|--------------------------|-------------------14-12------|
|---------------------|--------------------------|-------------------------14~~-|
|---------------------|--------------------------|------------------------------|

"There are no unachievable goals..."
|------------------|---4---------------|
|---7------6-------|-----4---------7---|
|-----8------6-----|-------4-----8-----|
|-------8------6---|-----------8-------|
|-6----------------|---------6---------|
|------------------|-4-----------------|

|---------------------4--------------------|
|-----6h7-----7p6-------4------------------|
|-----------------6-------4----------------|
|---8-------6---------------3/4----3~~~----|
|-6-------4-----------------xh-----x-------|
|-------------------4-------1/2----1-------|


Song  15  Back On Earth

Don't Know
Comments