Ozzy Osbourne - Steal Away The Night Chords & Tabs

 

Steal Away The Night Chords & Tabs

Ozzy Osbourne Chords & Tabs

Version: 1 Type: Bass Tab 0 ratings
1 star 2 stars 3 stars 4 stars 5 stars
comments

Steal Away The Night Bass Tab

=== Crankster's Ozzy Page
=== http://crankster.cjb.net
=== crankster@mailexcite.com

Transcriber - Ryan Silke 

Steal Away the Night
Ozzy Osbourne- Blizzard of Ozz


 Intro (play to drum) x 2
 G---------------------------------
 D------R-------R-------R----------
 A------------------3-----------2--
 E--0-------0---------------2------

 Verse 1
 G------------------------------------------------11-9------------------
 D--------------------------2--------------------------12-9-------------
 A------------------2---2-4---------------------------------12-9--------
 E--0-0-0-0-0-0-2-4---4--------10-10-10-10-10-10-----------------12-10--

 G-----------------------------------------------------------
 D-----------------------------------------------------------
 A----------------------3-2-0-------2-2-2-2-2-2-2-2-2-2------
 E--3-3-3-3-3-3-3-3-0-3-------3-2-3---------------------3-2--

 Verse 2
 G----------------------------------7-7/9-9/11-11/12/14-14\--
 D--------------------------------7--------------------------
 A------------------2----------------------------------------
 E--0-0-0-0-0-0-2-4---4-2-4-2--------------------------------
[ Tab from: http://www.guitartabs.cc/tabs/o/ozzy_osbourne/steal_away_the_night_btab.html ]
 G------------------------------------------------------------
 D------------------------------------------------------------
 A----------------------3-2-0-------2-2-2-2-2-2-2-2-2-2--/-5--
 E--3-3-3-3-3-3-3-3-0-3-------3-2-3---------------------------

 Chorus          x2
 G------------------------|---------------------------------------------------
 D------------------------|---------------------------------------------------
 A--7/------------7--7-7--|-----------/77777777--2-2-2-2-2-2-2-2-4-4-5-5--7\--
 E-----0--0--0--0---------|--0--0--0------------------------------------------

         x 2
 G-------------------------------
 D-------------------------------
 A-------------------------------
 E--4h5-5-5-5-4h5-5-5-5-4h5-5-5--

 Verse 1 and 2
 Chorus (no end chorus)
 Intro

 Interlude
 G-----------------------------------------------------------------------
 D-----------------------------------------------------------------------
 A-------------------/9--9--7--7--5-----------------------------------2--
 E--0-0-0-0-0-0-0-0-----------------3-3-3-3-3-3-3-3-5-5-5-5-5-5-5-3h5----

 Solo     x 8               x 6
 G-------------------|-----------------
 D-------------------|-------R---------
 A-------------------|--2--2---2--0-2--
 E--3-2-3-2-3-0-1-2--|-----------------

     x3
 G-------------------------------
 D-------------------------------
 A-------------------------------
 E--4h5-5-5-5-4h5-5-5-5-4h5-5-5--

 repeat Intro
 repeat Verse
 repeat Chorus (no end chorus)


Comments