Ozzy Osbourne - Sin Chords & Tabs

 

Sin Chords & Tabs

Ozzy Osbourne Chords & Tabs

Version: 2 Type: Tab 0 ratings
1 star 2 stars 3 stars 4 stars 5 stars
comments

Sin Tab

   
-----------------------------------------------------------------------------
			     Sin - Ozzy Osbourne
-----------------------------------------------------------------------------


Tuning: Eb Ab Db Gb Bb Eb
Here's the second solo I said I put in

                                                                        P.H.
e|--------------------------------------------------------------------------|
B|-9b---(9)---7-10-7-----7-10p7----7----------------------------------------|
G|-9b---(9b)---------9b---------10---9b---(9)-7---9----7b-------------------|
D|----------------------------------------------9---9-------9p7---7-9-7--9--|
A|--------------------------------------------------------------9-----------|
E|--------------------------------------------------------------------------|

e|--------------------------------------------------------------------------|
B|--------------------10---10---10-------------------------22--(22)\--/17---|
G|---------7---9b-------9b---9b---9b-(9)p7-9b--(9)\-----21-----(21)\--------|
D|---------7----------------------------------------------------------------|
A|--7-8-9-------------------------------------------------------------------|
E|--------------------------------------------------------------------------|

e|--14h19p14---14h17p14---14h19p14--14h17p14\----17------/22-19------------X|
B|----------18---------18---------18---------/19---19-16-------22-19-22b---X|
G|--------------------------------------------------------------------------|
D|--------------------------------------------------------------------------|
A|--------------------------------------------------------------------------|
E|--------------------------------------------------------------------------|

e|--19------22b-22b(1/2)--19-----19-------22b-22b(1/2)-19-------------------|
B|----22p19------------------22b----22p19----------------22b-22b-22b--(22)--|
G|--------------------------------------------------------------------------|
D|--------------------------------------------------------------------------|
A|--------------------------------------------------------------------------|
E|--------------------------------------------------------------------------|

e|--------------------------------------------------------------------------|
B|-19-22-19---------19------------------------------------------------------|
G|----------21b(1/2)--21b-(21)p19---21---19b--------------------19-21-21----|
D|-------------------------------21---21-------21-19--21---19-21---------21-|
A|--------------------------------------------------21--21------------------|
E|--------------------------------------------------------------------------|

e|-----------------------------------------------------------19-22b---------|
B|-------19----19-19-22p19----19------------------------19h22---------------|
G|-19-21---21b------------21b---21b-(21)p19--21---19-21---------------------|
D|-----------------------------------------21--21---------------------------|
A|--------------------------------------------------------------------------|
E|--------------------------------------------------------------------------|

e|--(22)-22b----(22)p19-22-19----19-----------------------------------------|
B|------(22)b----------------22b---22b---22b-(22)p19-22p19-----22-22b(22)p19|
G|--------------------------------------------------------21-19-------------|
D|--------------------------------------------------------------------------|
A|--------------------------------------------------------------------------|
E|--------------------------------------------------------------------------|
[ Tab from: http://www.guitartabs.cc/tabs/o/ozzy_osbourne/sin_tab_ver_2.html ]
e|--------------------------------------------------------------------------|
B|--------22-22b-(22)p19------22b-(22)p19-----22b--(22)\---------22----22---|
G|--21-19---------------21-19------------21-19--------------21b----21b---21b|
D|--------------------------------------------------------------------------|
A|--------------------------------------------------------------------------|
E|--------------------------------------------------------------------------|

e|--------------------------------------------------------------------------|
B|--22----22----22-----------------------------------------------22-----22--|
G|----21b---21b----21-(21)p19-21p19--21--21p19--21--19-21b-----------21b----|
D|---------------------------------21--21-----21--21------------------------|
A|--------------------------------------------------------------------------|
E|--------------------------------------------------------------------------|

                                                                   P.H.
e|--------------------------------------------------------------------------|
B|----22----22-----22-(22)\-----7--7-----7--7------7--7---------------------|
G|-21b---------21b----(21)\-----7--7-----7--7------7--7-----9-7---7--------7|
D|-----------------------------------9~--------9~--------9~-----9---9---9-7-|
A|--------------------------------------------------------------------------|
E|--------------------------------------------------------------------------|

        P.M.           P.m.  P.m.            p.m. p.m.
e|--------------------------------------------------------------------------|
B|---7-7-----9b--(9)-------------7--9b--(9)------------7----7-7-7-----7-7-7-|
G|---7-7-----9b--(9)--7----9-----7--9b--(9)-7----9-----7----7-7-7-----7-7-7-|
D|-9--------------------9----9----------------9----9--------------9~--------|
A|-------9------------------------------------------------------------------|
E|--------------------------------------------------------------------------|

          P.m.-|                                P.m.                    P.m.
e|--------------------------------------------------------------------------|
B|-----7-7----------10----10----10---10--9b--(9)--------------------9p7-----|
G|-----7-7-------9b----9b----9b----9b----9b--(9)--7-----9p7---------9p7-----|
D|9~-------9-7--------------------------------------9-------9~-9p7-------9-9|
A|--------------------------------------------------------------------------|
E|--------------------------------------------------------------------------|

                                    P.M.   P.M.
e|------------10------------------------------------------------------------|
B|-------10--------10-------------7-------------------------------------9p7-|
G|--9b-----------------9b--(9)p7--------9------9p7---------9p7----------9p7-|
D|----------------------------------9-------9-------9--9~------9---9p7------|
A|--------------------------------------------------------------------------|
E|--------------------------------------------------------------------------|

   P.M.-|
e|--------------------------------------------------------------------------|
B|-----------10----10---10---10-----10------------7---7---7---7-----7-------|
G|---------9b----9b---9b---9b-----9b-----9--9---9b--9b--9b--9b----9b----9p7-|
D|-9--9----------------------------------9--9-------------------------------|
A|--------------------------------------------------------------------------|
E|--------------------------------------------------------------------------|


e|----------------------------------|
B|----------------------------------|                                        
G|-9b--(9)----7~--------------------|
D|--------------------9~~~----------|                                        
A|----------------------------------|                                        
E|----------------------------------|

Fades out

                               
| /   slide up
| \   slide down
| H   hammer-on
| p   pull-off
| ~   vibrato
| +   harmonic
| x   Mute note
| b   bend ( all bends are full unless put differently)
|P.H. Pinch Harmonic
|P.M. Palm mute
|(22) Ghost note
=============================================================================
Comments