Ozzy Osbourne - Shot In The Dark Chords & Tabs

 

Shot In The Dark Chords & Tabs

Ozzy Osbourne Chords & Tabs

Version: 1 Type: Tab 0 ratings
1 star 2 stars 3 stars 4 stars 5 stars
comments

Shot In The Dark Tab

   
This is my first Ozzy tab.  I can't guarantee I got the solo right, though.
I think the rest of it is pretty accurate.

Shot In The Dark
As performed on "Diary of a Madman"
Written by Ozzy Osbourne, Randy Rhoads, and Bob Daisley

Standard Tuning
p      pull off
b      bend
r      return
PM     palm muting
x      muffled strings
~      vibrating
()     ghost note
TR     tremelo picking

Intro   (x2)
Distortion
e[-----------18-18b20-18~~~~--18-20-18--22b-------------
B[------18----------------------------------------------
G[-15---------------------------------------------------
D[------------------------------------------------------
A[------------------------------------------------------
E[------------------------------------------------------

Intro pt. 2 (x2)
e[------------------------------------------------------
B[------------------------------------------------------
G[--------6-----5---6-5---------------------------------
D[-xx-----6-----5---6-5---------------------------------
A[-xx-----4-xxx-3---4-3---------------------------------
E[----0-0---------------(4)-----------------------------
    PM...

Verse
Clean
e[------------------------------------------------------
B[-------1------1---------------------------------------
G[-----3------3---3--------------3-------3--------------
D[---3--------------3---3------4-------4---4------------
A[-1--------1---------1------4-------4-------4----------
E[-------------------------2-------2--------------------

e[-------1------1-----------------------------------------
B[------------1----------------4-------4------------------
G[-----3----3-----3---------------------------------------
D[---3--------------3--------4-------4---4----------------
A[-1------1-----------1----4-------4-------4--------------
E[-----------------------2-------2------------------------

Pre-Chorus
Distortion
e[------------------------------------------------------
B[------------------------------------------------------
G[-5-----6-8----5-----6-8---6-5----6-5------------------
D[-5-----6-8----5-----6-8---6-5----6-5------------------
A[-3-----4-6----3-----4-6---4-3----4-3------------------
E[------------------------------------------------------
[ Tab from: http://www.guitartabs.cc/tabs/o/ozzy_osbourne/shot_in_the_dark_tab.html ]
e[------------------------------------------------------
B[------------------------------------------------------
G[-5-----6-8----5-----6-8-------------------------------
D[-5-----6-8----5-----6-8------3------------------------
A[-3-----4-6----3-----4-6------3------------------------
E[-----------------------------1------------------------

Chorus
Distortion
e[------------------------------------------------------
B[------------------------------------------------------
G[-3-----------------6---5------------------------------
D[-3-----------------6---5--6-(4)-----------------------
A[-1-----------------4---3--6-(4)-----------------------
E[--------------------------4-(2)-----------------------

Intro Part 2

Verse

Chorus

Interlude
e[------------------------------------------------------
B[------------------------------------------------------
G[-6---13r11--6-10b11r10~~~-4---13r11--6-10b11r10~~~----
D[-6------------------------4---------------------------
A[-4------------------------2---------------------------
E[------------------------------------------------------

GUITAR SOLO
e[------------------------------------------------------
B[-11p9-11~~~~-9b11-9-----------------------------------
G[-------------------10p8---10p8---10p8----10~~~~~------
D[-----------------------8p6----8p6----8p6--------------
A[------------------------------------------------------
E[------------------------------------------------------

e[------------------------------------------------------
B[------------------------------------------------------
G[-10-8------------8------------------------------------
D[------8-6----6-8---6br--------------------------------
A[------------------------11p8-11p8----11-13-14---------
E[------------------------------------------------------

e[------------------------------------------------------
B[-11----------13------14------16------18~~~~~----------
G[------------------------------------------------------
D[------------------------------------------------------
A[------------------------------------------------------
E[------------------------------------------------------
  TR..............................

Pre-chorus

Chorus

Intro Part 2


That's it

Song Structure:
Intro part 1
Intro part 2
Verse
Pre-chorus
Chorus
Intro part 2
Verse
Pre-Chorus
Chorus
Interlude
Solo
Pre-chorus
Chorus
Intro part 2


May Randy Rhoads rest in peace.
Comments