Ozzy Osbourne - Sato Chords & Tabs

 

Sato Chords & Tabs

Ozzy Osbourne Chords & Tabs

Version: 1 Type: Tab 0 ratings
1 star 2 stars 3 stars 4 stars 5 stars
comments

Sato Tab

S.A.T.O. by Ozzy Osbourne

Tabbed by dr.krakpot

[ Tab from: http://www.guitartabs.cc/tabs/o/ozzy_osbourne/sato_tab.html ]
Intro:  the x'x represents 2 guitars playing at once.
|---0'0--------0'0-----0'0-----0'0----0-------0'0-------------------|
|---------0'0-------1------0'0-----------0'0------------------------|
|-------------------------------------2-----------------------------|
|-2--------------------------------2--------------------------------|
|-------------------------------------------------------------------|
|-------------------------------------------------------------------|
|-----0-------0--------2--0'0-------2----2----0'0-------------------|
|-3---3---3---------0--0------------0-------------------------------|
|---------2---------0-----------------------------------------------|
|-0--------------2--------------------------------------------------|
|-------------------------------------------------------------------|
|-------------------------------------------------------------------|
|------------0-----0'0------------------2--0'0----------------------|
|-------0'0-----3-------3'3----------0------------------------------|
|---2'2---------2------------2'2--------0---------------------------|
|---------------------------------2--4------------------------------|
|-------------------------------------------------------------------|
|-------------------------------------------------------------------|
|-----0'0-------2-----0-------0-------0--0--------------------------|
|----------0'0--------2--0'0-----3'3-----3--3-----------------------|
|---------------0--2------------------------------------------------|
|-------------------------------------------------------------------|
|-------------------------------------------------------------------|
|-------------------------------------------------------------------|
|-------2--0'0------0-----0----0-------------0---2------------------|
|----0--0-----------0--0-------2-------2'2-------3------------------|
|----0-----------------0--0----2'0--2--------2---2-PS---------------|
|-2----------------------------------------------0x\\\\-------------|
|-------------------------------------------------x\\\\-------------|
|-------------------------------------------------------------------|
|-----0-----0---0------0---0------0---0-----------------------------|
|-----0-----0---0------0---0------0---0-----------------------------|
|-------------------------------------------------------------------|
|-9-------9------------5---5----5-----------------------------------|
|-7-------7------------3---3----3-------3p2p0-----------------------|
|-0-----------------------------------------------------------------|
|-----0-----0---0---------------------------------------------------|
|-----0-----0---0---------------------------------------------------|
|-2-------2------------4--------------------------------------------|
|-2-------2------------4---4----------------------------------------|
|-0-------0------------2---0h2p0------------------------------------|
|---------------------------------3---2-----------------------------|
|-----0------------------------0------------------------------------|
|-----0------------------------0------------------------------------|
|-------------------------------------------------------------------|
|-9------------------------5-------5---5p4-5-p-0--------------------|
|-7------7-10p9-7---p---0--3-------3--------------------------------|
|-0-----------------------------------------------------------------|
|-----0-----0---0---------------------||----------------------------|
|-----0-----0---0---------------------||----------------------------|
|-2-------2-----------4---------------||-4p2p0----------------------|
|-2-------2-----------4----4----------||------4p2p0-----------------|
|-0-------------------2----0h2p0------||-----------3p2p0------------|
|--------------------------------3--2-||----------------3p2p0-------|
I cant conceal it like i know i..."
|---------w/ wah---------------------------------------------------|
|------------------------------------------------------------------|
|-0--------------3-------------2------------5----------------------|
|-0--------------3-------------2------------5----------------------|
|---------------------------------------------------15\------------|
|-3----------------------------------------------------------------|
Variation of main riff
|-----0-----------------------0------------------------------------|
|-----0-------8----8\---------0--------8--8\-----------------------|
|------------------------------------------------------------------|
|-9------2/4--5----5\-----5------------5--5\------continue...------|
|-7-----------------------3-------5h7------------------------------|
|-0----------------------------------------------------------------|
Bridge:
|---------------------------------------------------|---2--|----0--|
|---------------------------------------------------|---2--|----3--|
|-4---4-x-x---4---4--------------------2---2--------|------|-2--2--|
|-4---4-x-x---4---4-x-x---2---2--------2---2--------|------|-0-----|
|-2---2-x-x---2---2-x-x---2---2--------0---0--4p2p0-|-4----|-------|
|-----------x-----------x-0---0-0h4p0---------------|-2----|-------|
Solo:
|----------------------------------17p16~~~~~-------------------------------|
|----------------------------17h19------------\-----------------------------|
|----------------------16h18-------------------\----------------------------|
|----------------16h18--------------------------\---------------------------|
|----------16h19---------------------------------\--------------------------|
|-14/16-19------------------------------------------------------------------|
|------(9)------9-----------------------9-----------------------------------|
|-----9---12^~~--12p9-10p9---9--------9-------------------------------------|
|-11^---------------------12--12p9-11^---11p9-------------------------------|
|--------------------------------------------11-9---------9----9------------|
|-------------------------------------------------11-(11)---11--------------|
|---------------------------------------------------------------------------|
|---------------------------------------------------------------------------|
|-----------------------------------5p4-5p4----AH---------------------------|
|-9------8------7-----6-----5---4h6---------6^~~~~~~~~~~~~------------------|
|---(11)---(10)---(9)---(8)---7---------------------------------------------|
|---------------------------------------------------------------------------|
|---------------------------------------------------------------------------|
|------------AH-------------------------------------------------------------|
|-5p4-5p4-----5-4-5p4-------------------------------------------------------|
|---------6-4---------6-4-6p4-----------------------------------------------|
|-----------------------------7-6-4-----------------------------------------|
|-----------------------------------7-6~~~~~~~~~~~~~~~~~~-------------------|
|---------------------------------------------------------------------------|
|-----------------------------(9)------12-15-14~~~~~~~~~~~~~~~~~------------|
|---------------------------9----11/14--------------------------------------|
|-6p4h6-8-6-8-9-8-9-11-9h11-------------------------------------------------|
|---------------------------------------------------------------------------|
|---------------------------------------------------------------------------|
|---------------------------------------------------------------------------|
|----------------------------17-17-17-17p16p(12)-16-12----------------------|
|------------------------------------------------------15----p--12-p-0------|
|-------------------------16------------------------------------------------|
|----------------14-16/18---------------------------------------------------|
|----------14h16------------------------------------------------------------|
|-12h14-16------------------------------------------------------------------|
|---------------------------------------------------------------------------|
|-15-15-15-15p12-14-15-15-15-15-14-12-14---14^-^p12-------------------------|
|---------------------------------------------------13~~~~~~~p-0------------|
|---------------------------------------------------------------------------|
|---------------------------------------------------------------------------|
|---------------------------------------------------------------------------|
|---------------------------------------------------------------------------|
|-------------------------------12-p10\9h10p9h10/12----p-----0--------------|
|-----------------12p11-9-11/13---------------------------------------------|
|-------9-12p11-9-----------------------------------------------------------|
|-10h11---------------------------------------------------------------------|
|---------------------------------------------------------------------------|
|-19-19-19-19-19-(19)-19-19p17p16-17p16------16-----------------------------|
|---------------------------------------(17)----17--------------------------|
|--------------------------------------------------16-16\14--13--p---0------|
|---------------------------------------------------------------------------|
|---------------------------------------------------------------------------|
|---------------------------------------------------------------------------|
|----15----15---15---15---15---15---15-----------15------18^^---------------|
|-18^---18^--18^--18^--18^--18^--18^--18-15----15--18-15--------------------|
|-------------------------------------------18------------------------------|
|---------------------------------------------------------------------------|
|---------------------------------------------------------------------------|
|---------------------------------------------------------------------------|
|-^----15----------^^^------------------------------------------------------|
|---------18-15-17^^^^(17---17---------15~~~~-------15-15~~-----15-15~~~~---|
|---------------17^------17)17--^15----15~~~~-------15-15~~-----15-15~~~~---|
|-----------------------------------17-----------17----------17-------------|
|---------------------------------------------------------------------------|
|---------------------------------------------------------------------------|
|--------20^-^-^--19--p--0--------15----------------------------------------|
|-15-p-0------------------------15--18-15----15-----------------------------|
|-15-p-0---------------------17^----------17----17-15-----------------------|
|-----------------------------------------------------17p15-----------------|
|-----------------------------------------------------------17--------------|
|---------------------------------------------------------------------------|
|---------------------------------------------------------------------------|
|---------------------------------------------------------------------------|
|---------------------------------------------------------------------------|
|---------------------------------------------------------------------------|
|-16-15------15^--^--------x-x-x-back to bridge-----------------------------|
|-------(17)---------18^----------------------------------------------------|

Rock on!

-krak

e-mail: evanh@remotepoint.com
website: www.shockinc.cjb.net
Comments