Ozzy Osbourne - Road To Nowhere Chords & Tabs

 

Road To Nowhere Chords & Tabs

Ozzy Osbourne Chords & Tabs

Version: 2 Type: Tab 0 ratings
1 star 2 stars 3 stars 4 stars 5 stars
comments

Road To Nowhere Tab

   
Artist: Ozzy Osbourne
Album: No More Tears
Title: Road to Nowhere


Tuning:  Eb Ab Db Gb Bb Eb


I AM LEGEND:
H=HAMMER
P=PULL-OFF
\=SLIDE DOWN
^=VIBRATO
tr^=TRILL
B=BEND(assume full bend if not noted)
.=palm mute

let ring
--------2---------------------------3---------------------------------|
----3-----3-----------2---------------3-------------------------0-----|
------2-----2-----2-----2-------0-------0---------0---------------0---|
--0-----------------2-----2-------0-----------0-------------2---------|
---------------0--------------------------0-2---2-------------2-------|
------------------------------3-----------------------3-2-0-----------|


------------3---------------------------------------|
--------3-----3------------2-------3-------2--------|
----------0-----0------2-----2-------2-------2------|
------------------0------2-----2-2-----2-------2----|
---------------------0-------------------0-------0--|
--0-2-3---------------------------------------------|
                     PM-----------------------------|I

Fill 1 (beginning of intro solo)
--------------------------|
--------------------------|
-------14----16----14h16--|
-14h16----16----16--------|
--------------------------|
--------------------------|

--------------------------------------------------------------------|
--------------------22-19-------------------------------------------|
-19h21p19--21^(21)---------21^-21^(21)19-------19~~-19----21^(21)19-|
-----------------------------------------19h21---------21-----------|
--------------------------------------------------------------------|
--------------------------------------------------------------------|

------------------------------------------------------------------------|
19h20~~--19~~----------------22----22-----------------------------------|
-------------21~~-19~~-21^-----21^---21^--------------19h21p19--21^(21)-|
---------------------------------------------19-21----------------------|
----------------------------------------19h21---------------------------|
------------------------------------------------------------------------|

----------------12----------------------------------------------------|
-20^(20)-20p19----------22-----22----------19h20~~~19~~~--------------|
-------------------21^----21^-----21^(21)19--------------21~~~19~~~---|
----------------------------------------------------------------------|
----------------------------------------------------------------------|
----------------------------------------------------------------------|

 (two guitars)
Trill on all these
-------------------------------------------------------|
-(14-15)14\~~~~~(12-14)12\~~~~~(10-12)10\~~~~~(8-10)8--|
-(12-14)12\~~~~~(11-12)11\~~~~~(-9-11)-9\~~~~~(7--9)7--|
-------------------------------------------------------|
-------------------------------------------------------|
-------------------------------------------------------|

                                 (fill)

------------------------------||--------------------------|
--\7~~~~~~~\5~~~~~~~\3~~~~~\2-||--3~~~~~~-----------------|
--\6~~~~~~~\4~~~~~~~\2~~~~~\0-.|--------------------------|
------------------------------.|--4~~~~~~-----------------|
------------------------------||--------------------------|
------------------------------||--------------------------|


--------2---------------------------3---------------------------------|
----3-----3-----------2---------------3-------------------------0-----|
------2-----2-----2-----2-------0-------0---------0---------------0---|
--0-----------------2-----2-------0-----------0-------------2---------|
---------------0--------------------------0-2---2-------------2-------|
------------------------------3-----------------------3-2-0-----------|
1.i was looking back on my life....                              and all
  im still looking for the anwswers                              im still
------------3---------------2--------3------2-----|
--------3-----3---------3-----3--------3------3---|
----------0-----0----0----2-----2--------2------2-|
------------------0---------------0---------------|
--------------------------------------------------|
--0-2-3-------------------------------------------|
the things ive done to me..
searching for the key..

------------------------10^-10^-10^-10^-(10)\---------------|
-------------------------9---9---9---9--(-9)\---------------|
-------------------------------------------------5-----5----|
-------------------------------------------------5-----5----|
----------------------------------------------3-----3--3----|
------------------------------------------------------------|
                                             PM     PM
                                               the wreckage of

                                   P.H.---I
----------------------------------------------------------|
-------------------3--------------------------------------|
-------------------2--5--4---------------------5-----5----|
-------------------0--5--4--2------3~~---------5-----5----|
-------------------0--3--2--0-----------5~~-3-----3--3----|
-3-0-2-3--5-0-2-3--------------3-0------------------------|
PM---------------I            PM--I-----------------------|         PM    PM
of my past keeps       me                      it just


-----------------------0----------------------------------------------|
--------------------3--3---3---------------------------------3--------|
--------------------2--2---2-----5-----5---------------------2--5--4--|
--------------------0--0---0-----5-----5---------------------0--5--4--|
-------------------------------3----3--3---------------------0--2--2--|
--3-0-2-3--5-0-2-3-------------------------3-0-2-3--5-0-2-3-----------|
  PM--------------I           PM    PM    PM--------------------------|I
leave me alone                         I still find it all   mystery


-------------3-----------------------------------|
------3------3-------------------------------3---|
------0---2--0-------------------------------2---|
--2---0---2--0--------------5-5-5-4--4-4-2-2-0---|
--0-------0--------------------------------------|
------3------3-----------------------------------|
                            PM-------------------|I
be a  dream?   the road to nowhere

Solo 2:

-----------------------------------------------------------------------|
-----22----------------------------------------------------------------|
-21^----21^--(21)-21--21^--21^-(21)-19~~~~---------19~~~~~---19----21^-|
---------------------------------------------19h21--------------21-----|
-----------------------------------------------------------------------|
-----------------------------------------------------------------------|

-----------------------------------------------------------------------|
---------19h20~~~~--19~~~----------------------------------------------|
--(21)----------------------21-21^-----(21)p19-------------------------|
-----------------------------------------------19h21~~~~---------------|
---------------------------------------------------------19^-----(19)--|
-----------------------------------------------------------------------|

Through all the happiness and sorrow, i guess i'd do it all again...

------------------------------------------------|
----------------10------------------------------|
------7---7-9^-----9^---(9)-7---9p7--9^--9^-----| (hold bend)
--7h9---9---------------------9-----------------|
------------------------------------------------|
------------------------------------------------|

live for today and not tomorrow...

---------------------------------------------------|
-------------------------------10------10~~~~~~~---|
-7-9p7-7h9~~~~~~~~~------9^---------9^-------------|
---------------------------------------------------|
---------------------------------------------------|
---------------------------------------------------|

--------17------17~~~~~~-----|
-17^-------17^---------------|
-----------------------------|
-----------------------------|
-----------------------------|
-----------------------------|

(+) Coda I
[ Tab from: http://www.guitartabs.cc/tabs/o/ozzy_osbourne/road_to_nowhere_tab_ver_2.html ]
				 Bb5	       F5	     G5
-------------X\\PICK\\\\---------------------------------------------------|
-----3-------X\\SCRAPE\\\--------------------------------------------------|
-----2---------------------------------------------------------------------|
-----0-----------------------------------------15~~~~~~~~~-----------------|
-----0---------------------------17~~~~~~~~------------------17~~~~~~~~----|
---------------------------------------------------------------------------|
                                (Ah,______  Ah,_________)
                                                             The Road To
  F5
-------------------------------------------------------------------------------|
-------------------------------18^-18^-18^-18^-18^--(18)p15--------------------|
------------------------------------------------------------17-15--------------|
------------------------------------------------------------------17-15--------|
--15~~~~~~~~~~~~~~~~~~--------------------------------------------------17-15--|
-------------------------------------------------------------------------------|
No-where's gonna pass me by

G5                 F5              Eb5
       I Hope___ we ne_ver have to say good-bye

 F         Fsus4     F       Fsus4     F
I Never wan-na live without you,____ Yeah!

Guitar Solo:

-------6-----6---------6--------6---------9^--(9)p6-9p6---------6---------------|
-----6---4^-----9------6--9-----6-X-9^~~~---------------9p6-9^----9p6----6-9p6--|
-8^---------------8^--------8^----X-----------------------------------8^--------|
--------------------------------------------------------------------------------|
--------------------------------------------------------------------------------|
--------------------------------------------------------------------------------|

--------------------------------------------------------------------------------|
-6-6---------------6------8-------6------8^--(8)--------------------------------|
-----8^--(8)p6-----6-XX---8--XX---6-XX---8^--(8)-6---8-6--------3\----6-(6)\----|
---------------8---6-XX---8--XX---6-XX-6-----------8-----8p3-------/8-------/10-|
------------------------8-------8-----------------------------------------------|
--------------------------------------------------------------------------------|

--------------------------------------------------------------------------------|
-------------------------------------------------------------------------21--20-|
-8\-----10\-----14~~~~--14\-----20^--20^--20^--20^---20^--(20)p18----18---------|
----/12-----/15---------------------------------------------------20------------|
--------------------------------------------------------------------------------|
--------------------------------------------------------------------------------|

---------------------------------------------------------------------------------|
-18------------------------------------------------------------------------------|
----21--20-18--------------------------------------------------------------------|
---------------20--18---------------------11-8-------11-8------13-11-------13-11-|
----------------------20--19--18--16------------11-8------11-8-------13-11-------|
---------------------------------------------------------------------------------|

----------------------------------------------------------------------------------|
----------------------------------------------18^---(18)\----------15------15-----|
--------15-13-------15-13--------18-15------------------------14^-----14^-----14--|
--------------15-13-------15-13--------18-15--------------------------------------|
-13-11----------------------------------------------------------------------------|
----------------------------------------------------------------------------------|

----------------------------------------------------------17-----17-----17-----17-|
-15-----------------------------------17------17------17^----17^----17^----17^----|
----14^---(14)12----14----12-----16^-----16^-----16^------------------------------|
-----------------14----14---------------------------------------------------------|
----------------------------------------------------------------------------------|
----------------------------------------------------------------------------------|

-----17---------------|
-17^----17-15---------|
--------------(16)----|
----------------------|
----------------------|
----------------------|

(+) Coda II

--------------------------------------------------------------------------|
--------------------------------------------------------2-----------------|
--------------------------------------------------------3-----------------|
--5-5-5-4-4-4-2-2-2-------------------5-5-5-4-4-4-2-2-2-0-----------------|
--------------------5-5-5-4-4-4-2-2-2-------------------------------------|
--------------------------------------------------------------------------|

no - where____________________________________________        leads to me


--------2---------------------------3-----------------------|
----3-----3-----------2---------------3---------------------|
------2-----2-----2-----2-------0-------0---------0---------|
--0-----------------2-----2-------0-----------0-------------|
---------------0--------------------------0h2---2-----------|
------------------------------3-----------------------3-2-0-|


outro solo:

----------------------------------------------------------------------|
------------------------------------------------22--------------------|
-------------------19h21-19h21p19-21^---21~~~-------21^---21^---(21)--|
-------------19h21----------------------------------------------------|
-17h19-19h21----------------------------------------------------------|
----------------------------------------------------------------------|

--------------------------------------------------------------------------|
---------------------------------------------------22--22^--(22)----------|
-19~~~~~~~~~~~~~~~~~~~~~--------21p19----19-21^------------------21^-(21)-|
--------------------------------------21----------------------------------|
--------------------------------------------------------------------------|
--------------------------------------------------------------------------|

----------------------------------------------------------------------------|
--------------------19-20~~------------------22-----------------------------|
-19--------------------------23~~~--21--21^-----21^--19~~~~~~~~~~~~~~~------|
----------------------------------------------------------------------------|
----------------------------------------------------------------------------|
----------------------------------------------------------------------------|

----------------------------------------------------------------------------|
--------------------------------22-----------------------------------22-----|
-21^--(21)p19----19~~~-21^---------21^------21^-(21)p19----19----21^----21^-|
--------------21----------------------------------------21----21------------|
----------------------------------------------------------------------------|
----------------------------------------------------------------------------|

-----------17^---22^--22^---(22)--22~~~--19-----------19-----19-----19------|
-22~~~~~~------------------------------------22^~~~~-----22^~~--22^~~--22^~-|
----------------------------------------------------------------------------|
----------------------------------------------------------------------------|
----------------------------------------------------------------------------|
----------------------------------------------------------------------------|
           fast!
-19--------------------------------------------------------------------------|
----22p19--22-19-------22-19-------22-19-------22-19-------22-19-------22-19-|
-----------------21-19-------21-19-------21-19-------21-19-------21-19-------|
-----------------------------------------------------------------------------|
-----------------------------------------------------------------------------|
-----------------------------------------------------------------------------|

-----------------------------------------------------------------------------|
-22-19-------22-19-------22-19-------22-19--------22-19----19-19h22-19-------|
-------21-19-------21-19-------21-19-------21-19--------21-------------21-19-|
-----------------------------------------------------------------------------|
-----------------------------------------------------------------------------|
-----------------------------------------------------------------------------|

--------------------------19-------------------------------------------------|
-22-19-------22^~~~~~~~-------22p19---------19-------19----------------------|
-------21-19--------------------------21^-------21^------21^---(21)p19-------|
-----------------------------------------------------------------------21----|
-----------------------------------------------------------------------------|
-----------------------------------------------------------------------------|

------------------------------------------------------------------------------|
-------------------------------------------------------------------22------22-|
-19~~~~~~~--21^----(21)---19-----19------21^----(21)--19--21^--21------21^----|
------------------------------21----------------------------------------------|
------------------------------------------------------------------------------|
------------------------------------------------------------------------------|

----------------------------------------------------------------------------|
--------22------22-----22------22-------------------------------------------|
-21^-------21^-----21^-----21^----(21)-(19)-19~~~~~~~~~~~~~~~~~-------------|
----------------------------------------------------------------------------|
----------------------------------------------------------------------------|
----------------------------------------------------------------------------|
Comments