Ozzy Osbourne - Paranoid Chords & Tabs

 

Paranoid Chords & Tabs

Ozzy Osbourne Chords & Tabs

Version: 5 Type: Tab 0 ratings
1 star 2 stars 3 stars 4 stars 5 stars
comments

Paranoid Tab

   
                                 PARANOID (Live)
                          As recorded by Ozzy Osbourne
                          (From the 1987 Album TRIBUTE)

Words and Music by Frank Iommi, John Osbourne, William Ward & Terence Butler

Gtr I (E A D G B E) - 'Randy Rhoads - Rhythm & Lead w/dist'

   Intro
    Q=170          1.,2.,3.             4.
   4/4
    Gtr I
||----------------|------------------||-----------------||
||o---------------|-----------------o||-----------------||
||--9---9-(9)--9--|-----7h9-----7h9--||-----7h9-----7\--||
||--9---9-(9)--9--|-7h9-----7h9------||-7h9-----7h9-----||
||o-7---7-(7)--7--|-----------------o||-----------------||
||--0---0-(0)--0--|------------------||-----------------||


 Verse 1
  PM|   PM--|   PM----|               PM|   PM--|   PM
|-----------------|-----------------|-----------------|----------------|
|-----------------|-----------------|-----------------|-8-----9--8tr9--|
|-----9-------9---|-----9-----------|-----7-------7---|-7-7---9--------|
|-----9-------9---|-----9-----------|-----7-------7---|-5-7---9--------|
|-----7-------7---|-----7-------5h7-|-5-5-5-5-5-5-5-5-|---5---7--------|
|-0-0---0-0-0---0-|-0-0---0-5h7-----|-----------------|----------------|


  PM|   PM--|   PM----|               PM|   PM--|   PM
|-----------------|-----------------|-----------------|--------------|
|-----------------|-----------------|-----------------|-8-----9------|
|-----9-------9---|-----9-----------|-----7-------7---|-7-7---9--x\--|
|-----9-------9---|-----9-----------|-----7-------7---|-5-7---9--x\--|
|-----7-------7---|-----7-------5h7-|-5-5-5-5-5-5-5-5-|---5---7--x\--|
|-0-0---0-0-0---0-|-0-0---0-5h7-----|-----------------|--------------|


  \1____/
|------------------|-----------|-----------------|--------------------------|
|------------------|------3----|-----------------|--------------------------|
|------------------|-5----2----|----------[5]b9==|=([5])r=(5)--(5)-(5)------|
|------------------|-5----0----|-----------------|--------------------------|
|------------------|-3----0----|-2----(2)--------|--------------------------|
|-0----(0)----(0)--|-----------|-0----(0)--------|---------------------13\--|


|----------------|-----------|----------|--------|
|----------------|------3----|----------|--------|
|----------------|-5----2----|----------|--------|
|----------------|-5----0----|----------|--------|
|----------------|-3----0----|-2--------|--------|
|-0----(0)-15\---|-----------|-0--------|-17\----|


  PM|   PM--|   PM----|               PM|   PM--|   PM
|-----------------|-----------------|-----------------|---------------|
|-----------------|-----------------|-----------------|-8---------7h8-|
|-----9-------9---|-----9-----------|-----7-------7---|-7-7---9---7h9-|
|-----9-------9---|-----9-----------|-----7-------7---|-5-7---9-------|
|-----7-------7---|-----7-------5h7-|-5-5-5-5-5-5-5-5-|---5---7-7-----|
|-0-0---0-0-0---0-|-0-0---0-5h7-----|-----------------|---------------|


  PM|   PM--|   PM----|               PM|   PM--|   PM
|-----------------|-----------------|-----------------|---------------|
|-----------------|-----------------|-----------------|-8-7---9-------|
|-----9-------9---|-----9-----------|-----7-------7---|-7-7---9-------|
|-----9-------9---|-----9-----------|-----7-------7---|-5-7---9-------|
|-----7-------7---|-----7-------5h7-|-5-5-5-5-5-5-5-5-|---5---7-------|
|-0-0---0-0-0---0-|-0-0---0-5h7-----|-----------------|----------12\--|


|----------|--------------|----------|--------------|
|----------|--------------|-3--------|-(3)----------|
|-9--------|-(9)----------|-2--------|-(2)----------|
|-9--------|-(9)------x\--|-0--------|-(0)----------|
|-7--------|-(7)------x\--|-0--------|-(0)------x\--|
|-0--------|-(0)------x\--|----------|----------x\--|


|----------|-------------------------|----------|-------------|
|----------|-------------------------|-3--------|-3-----------|
|-9--------|-------------------------|-2--------|-2-----------|
|-9--------|-0tr2h===5p0h5p0h4p0h4p0-|-0--------|-0-----------|
|-7--------|-------------------------|-0--------|-0-----------|
|-0--------|-------------------------|----------|------19\----|


  PM|   PM--|   PM----|               PM|   PM--|   PM          ~
|-----------------|-----------------|-----------------|-------------|
|-----------------|-----------------|-----------------|-8-7---9-----|
|-----9-------9---|-----9-----------|-----7-------7---|-7-7---9-7---|
|-----9-------9---|-----9-----------|-----7-------7---|-5-7---9-----|
|-----7-------7---|-----7-------5h7-|-5-5-5-5-5-5-5-5-|---5---7-----|
|-0-0---0-0-0---0-|-0-0---0-5h7-----|-----------------|-------------|


  PM|   PM--|   PM----|               PM|   PM--|
|-----------------|-----------------|----------------|----------------||
|-----------------|-----------------|----------------|-7-7---9--8tr9--||
|-----9-------9---|-----9-----------|-----7-------7--|-7-7---9--------||
|-----9-------9---|-----9-----------|-----7-------7--|-7-7---9--------||
|-----7-------7---|-----7-------5h7-|-5-5-5-5-5-5----|-5-5---7--------||
|-0-0---0-0-0---0-|-0-0---0-5h7-----|----------------|----------------||


 Verse 2
  PM|   PM--|   PM----|               PM|   PM--|   PM
|-----------------|-----------------|-----------------|----------------|
|-----------------|-----------------|-----------------|-8-7---9--(9)\--|
|-----9-------9---|-----9-----------|-----7-------7---|-7-7---9--(9)\--|
|-----9-------9---|-----9-----------|-----7-------7---|-5-7---9--(9)\--|
|-----7-------7---|-----7-------5h7-|-5-5-5-5-5-5-5-5-|---5---7--(7)\--|
|-0-0---0-0-0---0-|-0-0---0-5h7-----|-----------------|----------------|


  PM|   PM--|   PM----|   PM          PM|   PM--|   PM
|-----------------|-----------------|-----------------|-------------||
|-----------------|-----------------|-----------------|-8-7---9--0--||
|-----9-------9---|-----9-----------|-----7-------7---|-7-7---9--0--||
|-----9-------9---|-----9-----------|-----7-------7---|-5-7---9-----||
|-----7-------7---|-----7-------5h7-|-5-5-5-5-5-5-5-5-|---5---7-----||
|-0-0---0-0-0---0-|-0-0---0-5h7-----|-----------------|-------------||


 Guitar Solo
|-----------------12-----------------12-----------------12-----------------12-|
|--------------12-----------------12-----------------12-----------------12----|
|-14b16==(14)r-------14b16==(14)r-------14b16==(14)r-------14b16==(14)r-------|
|-----------------------------------------------------------------------------|
|-----------------------------------------------------------------------------|
|-----------------------------------------------------------------------------|


|-----------------12-----------------12-----------------12-----------------12-|
|--------------12-----------------12-----------------12-----------------12----|
|-14b16==(14)r-------14b16==(14)r-------14b16==(14)r-------14b16==(14)r-------|
|-----------------------------------------------------------------------------|
|-----------------------------------------------------------------------------|
|-----------------------------------------------------------------------------|


|-----------------12----------13----------14----------15-|
|--------------12----15-12-13----16-13-14----17-14-15----|
|-14b16==(14)r-------------------------------------------|
|--------------------------------------------------------|
|--------------------------------------------------------|
|--------------------------------------------------------|


|-------------------------0--|
|-15-18b20==(18)---(18)r-----|
|----------------------------|
|----------------------------|
|----------------------------|
|----------------------------|


|-15p14-17p14-15p14----14-15p14----14-15p14-17p14-|
|-------------------17----------17----------------|
|-------------------------------------------------|
|-------------------------------------------------|
|-------------------------------------------------|
|-------------------------------------------------|

[ Tab from: http://www.guitartabs.cc/tabs/o/ozzy_osbourne/paranoid_tab_ver_5.html ]
|-15p14----14-15p14-17p14-15s=22-18h20p=|
|-------17------------------------------|
|---------------------------------------|
|---------------------------------------|
|---------------------------------------|
|---------------------------------------|


|-18h20p18----------------------------------------|
|----------21p18h19p18----18----------------------|
|----------------------20----20p18----18----------|
|----------------------------------20----20p18----|
|----------------------------------------------21-|
|-------------------------------------------------|


            ~~
|------------------------------|
|------------------------------|
|-------------------------2b3==|
|------------------------------|
|-21p20p18h20-(20)--20\--------|
|--------------------x---------|


       T             T             T
|----------------------------|----------------x/--|
|----------------------------|----------------x/--|
|-(2)--5r--2b4==(2)-11rp2b4==|=(2)-9p2r(2)p0--x/--|
|----------------------------|--------------------|
|----------------------------|--------------------|
|----------------------------|--------------------|


                                                               ~~
|---------------------------------------------|--------------------12h15p=|
|---------------14---------------15b17==(15)--|-(15)r=(15)-12-15----------|
|-14b15==(14)--(14)-(14)r(14)p12--------------|---------------------------|
|---------------------------------------------|---------------------------|
|---------------------------------------------|---------------------------|
|---------------------------------------------|---------------------------|


|-12h14p12h15p12----------------------------------|
|----------------15p12-12h13p12----12-------------|
|-------------------------------15----13p11h12p11-|
|-------------------------------------------------|
|-------------------------------------------------|
|-------------------------------------------------|


                          ~~~~~
|--------------------------------|
|--------------------------------|
|-11----------14-14b16==(14)r----|
|----14p12-14--------------------|
|--------------------------------|
|--------------------------------|


                                                      ~~~~~
|-------------------------------------|------------------------||
|-------------------------------------|------------------------||
|----------------------------------11-|-12-14b16====(14)r------||
|-----------------9h11h12-11h12h14----|------------------------||
|---------9h10h12---------------------|------------------------||
|-9h10h12-----------------------------|--------------------7\--||


    PM|   PM--|   PM----|               PM|   PM--|   PM
||------------------|-----------------|-----------------|
||o-----------------|-----------------|-----------------|
||------9-------9---|-----9-----------|-----7-------7---|
||------9-------9---|-----9-----------|-----7-------7---|
||o-----7-------7---|-----7-------5h7-|-5-5-5-5-5-5-5-5-|
||--0-0---0-0-0---0-|-0-0---0-5h7-----|-----------------|


  1.              2.
|--------------||-------------||
|-8-7---------o||--8-7---9----||
|-7-7----------||--7-7---9----||
|-5-7----------||--5-7---9----||
|---5---7\----o||----5---7----||
|--------------||-------------||


 Verse 3
  PM|   PM--|   PM----|               PM|   PM--|   PM
|-----------------|-----------------|-----------------|--------------|
|-----------------|-----------------|-----------------|--------------|
|-----9-------9---|-----9-----------|-----7-------7---|-7-----<5>----|
|-----9-------9---|-----9-----------|-----7-------7---|-7------------|
|-----7-------7---|-----7-------5h7-|-5-5---5-5-5---5-|-5------------|
|-0-0---0-0-0---0-|-0-0---0-5h7-----|-----------------|---0----------|


  PM|   PM--|   PM----|               PM|   PM--|   PM
|-----------------|-----------------|-----------------|--------------|
|-----------------|-----------------|-----------------|-8-----9------|
|-----9-------9---|-----9-----------|-----7-------7---|-7-7---9--x\--|
|-----9-------9---|-----9-----------|-----7-------7---|-5-7---9--x\--|
|-----7-------7---|-----7-------5h7-|-5-5-5-5-5-5-5-5-|---5---7--x\--|
|-0-0---0-0-0---0-|-0-0---0-5h7-----|-----------------|--------------|


  \1____/
|------------------|-----------|----------------|-----------------------|
|------------------|-----------|----------------|-----------------------|
|------------------|-5----7----|------------<5>-|-(<5>)--<5>--<5>-------|
|------------------|-5----7----|----------------|-----------------------|
|------------------|-3----5----|-2------(2)-----|-----------------------|
|-0----(0)----(0)--|-----------|-0------(0)-----|------------------15\--|


|----------|------0----|--------------|-----------------------------|
|----------|------0----|--------------|-----------------------------|
|----------|-5----7----|--------------|-----------------------------|
|-2--------|-5----7----|------------7s|=12s17b19====(17)--(17)r(17)-|
|-2--------|-3----5----|-2------(2)---|-----------------------------|
|-0--------|-----------|-0------(0)---|-----------------------------|


  PM|   PM--|   PM----|               PM|   PM--|   PM
|-----------------|-----------------|-----------------|----------------|
|-----------------|-----------------|-----------------|-8-7------7tr8--|
|-----9-------9---|-----9-----------|-----7-------7---|-7-7---9--------|
|-----9-------9---|-----9-----------|-----7-------7---|-5-7---9--------|
|-----7-------7---|-----7-------5h7-|-5-5-5-5-5-5-5-5-|---5---7--------|
|-0-0---0-0-0---0-|-0-0---0-5h7-----|-----------------|----------------|


  PM|   PM--|   PM----|               PM|   PM--|   PM
|-----------------|-----------------|-----------------|--------------|
|-----------------|-----------------|-----------------|-8-----9------|
|-----9-------9---|-----9-----------|-----7-------7---|-7-7---9--x\--|
|-----9-------9---|-----9-----------|-----7-------7---|-5-7---9--x\--|
|-----7-------7---|-----7-------5h7-|-5-5-5-5-5-5-5-5-|---5---7--x\--|
|-0-0---0-0-0---0-|-0-0---0-5h7-----|-----------------|--------------|


  PM|   PM--|   PM----|               PM|   PM--|   PM
|-----------------|-----------------|-----------------|--------------|
|-----------------|-----------------|-----------------|-8-7---9------|
|-----9-------9---|-----9-----------|-----7-------7---|-7-7---9------|
|-----9-------9---|-----9-----------|-----7-------7---|-5-7---9------|
|-----7-------7---|-----7-------5h7-|-5-5---5-5-5---5-|---5---7------|
|-0-0---0-0-0---0-|-0-0---0-5h7-----|-----------------|----------x\--|


  PM|   PM|        PM|               PM|   PM--|   PM
|----------------|-----------------|-----------------|------------*|
|----------------|-----------------|-----------------|------------*|
|-----9-----7--6-|-----9-----------|-----7-------7---|-------9----*|
|-----9-----7--6-|-----9-----------|-----7-------7---|-------9----*|
|-----7----------|-----7-------5h7-|-5-5-5-5-5-5-5-5-|-5-4---7----*|
|-0-0---0-0------|-0-0---0-5h7-----|-----------------|------------*|


Tablature Legend
----------------
 h   - hammer-on
 p   - pull-off
 b   - bend
 pb  - pre-bend
 r   - bend release (if no number after the r, then release immediately)
 /\  - slide into or out of (from/to "nowhere")
 s   - legato slide
 S   - shift slide
  - natural harmonic
[n]  - artificial harmonic
n(n) - tapped harmonic
 ~   - vibrato
 tr  - trill
 T   - tap
 TP  - trem. picking
 PM  - palm muting
\n/  - tremolo bar dip; n = amount to dip
 \n  - tremolo bar down
 n/  - tremolo bar up
/n\  - tremolo bar inverted dip
 =   - hold bend; also acts as connecting device for hammers/pulls
 <>  - volume swell (louder/softer)
 x   - on rhythm slash represents muted slash
 o   - on rhythm slash represents single note slash

Misc Legend
-----------
 |  - bar
||  - double bar
||o - repeat start
o|| - repeat end
*|  - double bar (ending)
 :  - bar (freetime)
 $  - Segno
 &  - Coda
Tempo markers -  = BPM(8/16=s8/s16), where s8 = swing 8ths, s16 = swing 16ths
Comments