Ozzy Osbourne - Paranoid Chords & Tabs

 

Paranoid Chords & Tabs

Ozzy Osbourne Chords & Tabs

Version: 1 Type: Tab 0 ratings
1 star 2 stars 3 stars 4 stars 5 stars
comments

Paranoid Tab

   
Paranoid

as performed by OZZY OSBOURNE
from the album THE OZZMAN COMETH
written by O. Osbourne
transcribed by C. Bostion
[ Tab from: http://www.guitartabs.cc/tabs/o/ozzy_osbourne/paranoid_tab.html ]
Main Riff:
                                                        H        H
--------------------------------------------------------------------------------|
--------------------------------------------------------------------------------|
--------------------------------------------------------------------------------|
---------------5 0 2------------------------------------------------------------|
----------------7-------------7--------------7-----------------5 7----------5 5-|
5 5-----------------------------------------------------------------------------|
--------0 0---------0 0-----------0 0-------------5-----------------------------|
7-------------------------------------------------------------------------------|

Riff:
-----------------------------------------------------------------------------|
-----------------------------------------------------------------------------|
-----------------------------------------------------------------------------|
-----------------------------------------------------------------------------|
----------5 7-----------5----------------------------------------------------|
7----------------------------------------------------------------------------|
-------0------0----0----------0----------------------------------------------|
-----------------------------------------------------------------------------|

Back to main riff

This is my first time so if you have any questions e-mail me at
bass_clef@prodigy.net
Comments