Ozzy Osbourne - No More Tears Chords & Tabs

 

No More Tears Chords & Tabs

Ozzy Osbourne Chords & Tabs

Version: 2 Type: Tab 0 ratings
1 star 2 stars 3 stars 4 stars 5 stars
comments

No More Tears Tab

   
Band- Ozzy Osbourne
Album- No More Tears

1.MR.TINKERTRAIN

Tune down 1/2 step: Eb Ab Db Gb Bb Eb

Intro: arranged for guitar:
|-14-15-13-15-12--14-15-|-12---14-15-17-15-14-15-|
|-----------------------|------------------------|
|-----------------------|------------------------|
|-14--------------------|-12---------------------|
|-----------------------|------------------------|
|-----------------------|------------------------|

|-14-15-13-15-12--------|-----------18-18-17--|
|-----------------15-17-|-15-15---------------|
|-----------------------|-------17------------|
|-11--------------------|---------------------|
|-----------------------|-15------------------|
|-----------------------|---------------------|

|---------------------------------------|
|-4----4----4---------------------------|
|-4----4----4---------------------------|
|-4----4----4---PM----------------------|
|-2----2----2----*--*--*--*--*--*-*-----|
|----------------5--5--4--3--2--1-0-----|

W/ above figure: 3 times
|GTR 2 w/ slide--------------------------------------------------------|
|--------------------------------16--------------16-------------14/16--|
|-----8------/---(11)--/--16---------16----------------16~~~~~--14/16--|
|----------------------------------------------------------------------|
|----------------------------------------------------------------------|
|----------------------------------------------------------------------|
|GTR 3
|-----9 /11-p-0----------------------------------------------------------|
|--------------------19-------19--------19--------19-19----19--------17^-|
|-----------------18^------18^-------18^-------18^------18^^^18-16~~-----|
|------------------------------------------------------------------------|
|------------------------------------------------------------------------|
|------------------------------------------------------------------------|

GTR 2
|------------------------------------------------------------------|
|-------------------------16---\\--14--\\-\------------------------|
|-------------------------16---\\--14--\\-\-\\--\------------------|
|-------------------------------------------\\--\-\\-\-------------|
|-------------------------------------------------\\-\-------------|
|------------------------------------------------------------------|
|GTR 3
|-------17------------17--19^~~~~~~~~~~~--21^~~~~~~~~~~~~-(21)\----|
|-----------17^----------------------------------------------------|
|------------------------------------------------------------------|
|------------------------------------------------------------------|
|------------------------------------------------------------------|
|------------------------------------------------------------------|

Main figure:
|--------------------------|----------------------|
|---------------3----------|----------------------|
|---------------2----2--2--|-------2-----2--------|
|---------------0----0--2--|-------2-----2--------|
|-2-----2-------0----0--0--|-------0-----0--PH----|
|-0--3--0---3-0------------|----3-----3-----3^~~~-|

|--------------------------|----------------------|
|---------------3----------|--------------14^-----|
|---------------2----2--2--|-(2)----------14^-----|
|---------------0----0--2--|-(2)------------------|
|-2-----2-------0----0--0--|-(0)-------x----------|
|-0--3--0---3-0------------|------(3)-------------|


"Would you like some sweeties little girl?"
|------------------------------------------------------------------|
|---------------------------------3--0--0------------3-------------|
|---------------------------------2------------------2---2---(2)---|
|-----2---------------------------0--2--2------------0---2---(2)---|
|-----2---------------------------0--2--2------------0---0---(0)---|
|-3p0-0------------------------------0--0--------------------------|
                      "I'm gonna show you a brand new world..."
----------------------------rake:-----------------------------------|
-----3---------------------(3---------------------------------------|
-----2---------------------)2--------------------------------2------|
-----0---2---2-------------(0--------------------------------2------|
-----0---2---2-------------)0--------------------------------0------|
---------0---0------------------------------------------------------|

|------------------------------------------------|
|-7^--^(7)--T------------,,,------PH==========|--|
|-7^--^(7)--21^--(21)p-2^---^(2)--2~~~~-(2)p(0)--|
|------------------------------------------------|
|------------------------------------------------|
|------------------------------------------------|

"Iv'e got a palace full of fantasy..."
|-----------------|-----------------|------------------|------------|
|-----------------|-----------------|------------------|------------|
|-----------------|-----------2-2---|-----------2-2--2-|--2---------|
|-2---------------|-----------0-0-2-|-2---------0-0--0-|--0-2-2-2-2-|
|-2-2-2-2-2-2-2-2-|-2-2-2-2-2-0-0-2-|-2-2-2-2-2-0-0--0-|--0-0-0-0-0-|
|-0-0-0-0-0-0-0-0-|-0-0-0-0-0-------|-0-0-0-0-0--------|------------|
         "Once you're there I'm gonna take you for a ride..."
--------|--------0----------|------------------|-------------------|
-3-3----|-------------------|-------5----------|--------2----------|
-2-2--4-|-----0----------0--|-----0---------0--|------2------------|
-0-0--4-|---4----------4----|---4---------4----|----2---------0-2--|
-0-0--2-|-7----------7------|-5---------7------|--4---------4------|
--------|-------------------|------------------|-------------------|

"Ive got a one way ticket..."
|------------------------|------------------------|----------------|
|------------------------|------------------------|----------------|
|-4----------------------|--4---------------------|----------------|
|-4-------7-7-6-5-4-3-2--|--4-------7-7-6-5-4-3-2-|----------------|
|-2----------------------|--2---------------------|----------------|
|---------5-5-4-3-2-1-0--|----------5-5-4-3-2-1-0-|----------------|

|------------------------|------------------------------------------|
|------------------------|------------------------------------------|
|-6----------------------|-6-------4----4----4--4--0----------------|
|-6-------9-9-8-7-6-5-4--|-6-------4----4----4--4--0----------------|back to main riff...
|-4----------------------|-4-------2----2----2--2-------------------|
|---------7-7-6-5-4-3-2--|------------------------------------------|

Pre-solo:
|------------------------------------------------------------------|
|-16----------16/17--16---14----------------------14^--^14^---^14--|
|--8-----------8/9----8----6----16----------16-----6^--^6-^---^6---|
|--------------------------------9-----------9---------------------|
|------------------------------------------------------------------|
|------------------------------------------------------------------|

|------------------------------------------------------------------|
|-----------------/19-----17-----16--------------------------------|
|-16--------------/11------9------8-\-6------16-------16-----------|
|--9------------------------------------------9--------9-----------|
|------------------------------------------------------------------|
|------------------------------------------------------------------|

|---------------------------------------------------|
|-14^--^14^--^14^--^14^--^14^--^14^--^14------------|
|--6^--^6-^--^-6^--^6-^--^-6^--^6-^--^6-------------|
|---------------------------------------------------|
|---------------------------------------------------|
|---------------------------------------------------|

SOLO:
|----------------------------------------|----------------------|
|-----15-----15-----15-----15-----15-----|-15----15-------------|
|-14^----14^----14^----14^----14^----14^-|----14^--^14^-^14p12--|
|----------------------------------------|----------------------|
|----------------------------------------|----------------------|
|----------------------------------------|----------------------|

|----^~~~~~~-------0-|-15-12-15-12-----15-12-15-12-----15-12-15-12-|
|-15^--------(15)-\--|------------15-12-----------15-12------------|
|--------------------|---------------------------------------------|
|--------------------|---------------------------------------------|
|--------------------|---------------------------------------------|
|--------------------|---------------------------------------------|

-------15-12-15-12------|-15^----15^----12-------------------------|
-15-12------------------|-----------------15^~~~~--(15)\-----------|
------------------15-12-|------------------------------------------|
------------------------|------------------------------------------|
------------------------|------------------------------------------|
------------------------|------------------------------------------|

|-------------------------------------|----------------------------|
|-------------------------------------|---------------12~~~~~------|
|-12^-^12p9----9~~~-12^-^12p9----9~~~-|-14^-^14p12----12~~~~~------|
|-----------12----------------12------|------------14--------------|
|-------------------------------------|----------------------------|
|-------------------------------------|----------------------------|

|----19----19-----19-----19------------|-19^---^19-----------------|
|-19^--19^----19^----19^----19^-^19-\--|-----------19^---^19--17\--|
|--------------------------------------|---------------------------|
|--------------------------------------|---------------------------|
|--------------------------------------|---------------------------|
|--------------------------------------|---------------------------|

|---------7----------------------------|-7----------7---------------------|
|-10^~~~~---10p7-10^-----7-10p7-10^~~~-|---10-7---7-----------------------|
|--------------------------------------|--------9^----9^-^9-7---9---7-----|
|--------------------------------------|----------------------9---9---9p7-|
|--------------------------------------|----------------------------------|
|--------------------------------------|----------------------------------|

|----------7------------|-------10--7--10--7-----------------------|
|-10^~~~~----10p7-10^---|---------------------10^~~~~---7---7------|
|-----------------------|------------------------------------------|
|-----------------------|------------------------------------------|
|-----------------------|------------------------------------------|
|-----------------------|------------------------------------------|

|-12^-----12-(12)^-------------9-------------9----------------------|
|--------------------12^~~~~-----12-9-----9-------------------------|
|-------------------------------------11^------11^-^11-9----11----9-|
|--------------------------------------------------------11----11-9-|
|-------------------------------------------------------------------|
|-------------------------------------------------------------------|

|------------------------------------------------------------------|
|-------12--12-----12-12-----12--12-----12----12-------------------|
|-11^-------11^-------11^--------11^-------11^--^11---9\-----------|
|------------------------------------------------------------------|
|------------------------------------------------------------------|
|------------------------------------------------------------------|

|-17^~~~~~~~~~~~~~~17~~~~~---15---17--17^---15---------------------|
|---------------17^----------15-----------------17~~~~~~~~~~~~~~~--|
|---------------------------x--------------------------------------|
|--------------------------x---------------------------------------|
|------------------------------------------------------------------|
|------------------------------------------------------------------|

|------------------------------------------------/12~~~~~(12)\-----|
|-15-----------12---(12)-----(12)~~~~~--12\-0----/12-----(12)\-----|
|----14^--^14--12---(12)-----(12)-------12\-0----/12-----(12)\-----|
|------------------------------------------------------------------|
|------------------------------------------------------------------|
|------------------------------------------------------------------|end solo


"You can't run...you can't hide!..."
|------------------------------------------------------------------|
|------------------------------------------------------------------|
|-9\-----------7--7--------2--2-------2-------2-------2-----2--2---|
|-9\-----------7--7--------2--2-------2-------2-------2-----2--2---|
|-7\-----------5--5--------0--0-------0-------0-------0-----0--0---|
|----------------------------------3^------3^------3^----3^--------|
                        "That's why the call me...Mr. Tinkertrain..."
|----------------------|-----------------------|-------------------|
|----------------------|--------------3--------|--10-10-10-9-8-7---|
|-----------2-----18\--|--------------2-----2--|---9--9--9-8-7-6---|
|-----------2----------|--------------0-----2--|---7--7--7-6-5-4---|
|-----------0----------|--2-----2-----0-----0--|-------------------|
|-3^---0---------------|--0--3--0--3-----------|-------------------|

2.I DON'T WANT TO CHANGE THE WORLD

Tune down 1/2 step: Eb Ab Db Gb Bb Eb


|-------|-----------------------------|----------------------------|
|-------|-----------------------------|----------------------------|
|-------|-----------------------------|---------------2--"Huh!"----|
|-------|-0h2-----0h2-------------5/7-|-0h2-----2p0---2------------|
|-x/17\-|-0---0-0-0---0-0-0-0-3p0-3/5-|-0---0-0-0-----0------------|
|-------|-----------------------------|-------------3--------------|

2nd time:
|-----------------------------|------------------------------------|
|-----------------------------|------------------------------------|
|-----------------------------|------------------------------------|
|-0h2-----0h2-------------5/7-|-0h2-----2p0-----PH--PH-------------|
|-0---0-0-0---0-0-0-0-3p0-3/5-|-0---0-0-0---0-0-5~~-3~~------------|
|-----------------------------|------------------------------------|

"I don't wanna change the world..."
|------------------------------------------------------------------|
|----------3---3----------------------3-----3----------------------|
|-2--------2---0----------------------0-----2-------------2--------|
|-2--------0---0------------------0---0-----0-------------2--------|
|-0-----------------------------------------0-----0-------0--------|
|--------0-2---3------------------2---3--------------3-------------|

|----------------------------------||2nd time:---------------------|
|----------17----------------------||-------8----------------------|
|-------16^--^16-14----------------||----10^-^10^-^10^-^10^~~~~~---|
|-14-14-------------16-14----------||------------------------------|
|-------------------------16-14----||------------------------------|
|-------------------------------17-||------------------------------|

"You know it ain't easy...."
|-----------------------------|------------------------------------|
|-----------------------------|------------------------------------|
|-----------------------------|---------------4---2----------------|
|-----------------------------|---------------4---2----------------|
|---4--4-4-----4----4---4-4-4-|----4--4-4-----2---0----------------|
|-0-2--2-2-0-0-2--0-2---2-2-2-|-0--2--2-2-0-0----------------------|

Guitar Solo:
|-----------------------------------------|-15-----------------------|
|-----8-----8-------10^-^10-8---10---8~~~-|---15---------------------|
|-8h9---8h9---8h9p8-----------9----9------|-----14^-^14-12----12-14^-|
|-----------------------------------------|----------------14--------|
|-----------------------------------------|--------------------------|
|-----------------------------------------|--------------------------|

--15-------17^~~~~(17)\-|------17------17------17-----(17)-----------|
------------------------|-17^-----17^-----17^-----17^-----17^-^17p15-|
-----14-12--------------|--------------------------------------------|
------------------------|--------------------------------------------|
------------------------|--------------------------------------------|
------------------------|--------------------------------------------|

|-17----16----15----14----15------------|
|----14----14----14----14---------PH----|
|----------------------------16^--14~~~-|
|---------------------------------------|
|---------------------------------------|
|---------------------------------------|

|-PM..........------PM..........-------|-----------------------------------------|
|-------------PH~~~~------------PH~~~~-|-----------------------------------------|
|-------------5-----------------7------|-------------------------------------14~-|
|-5-6-7-5-6-7-------7-8-9-7-8-9--------|-7-8-9-7-8-9-121314121314141516141516----|
|--------------------------------------|-----------------------------------------|
|--------------------------------------|-----------------------------------------|

|-------------------/=========\-------------------|
|----------------T-/-----------\------------------|
|-16^--^(16)p14-21^-(21)-p-4----(4)-2h4-2~~~~~~~~-|
|-------------------------------------------------|
|-------------------------------------------------|
|-------------------------------------------------|

|--------------------------------------|----------------------|
|----5-----5-----5----5--3-~~~-----(0)-|---7---7---7---7---5--|
|-7^----7^----7^---7^----5^-----x\-(0)-|-9^--9^--9^--9^--7^---|
|--------------------------------------|----------------------|
|--------------------------------------|----------------------|
|--------------------------------------|----------------------|

|-------|---------------------|--------------1215-171512------171512-|
|-5--5--|---5---5---5---5---3~~~~~---------15-----------151215-------|
|-7--5--|-7^--7^--7^--7^--5^--|-----x\-------------------------------|
|-------|---------------------|--------------------------------------|
|-------|---------------------|--------------------------------------|
|-------|---------------------|---------(0)--------------------------|

These are 20's, 21's and 22's...not 1's, 2's and 0's...

--------171512------171512----------201715------201715------2220---------|
-151215-------151215------17-15/1717------201720------201720----22222022-|
-------------------------------------------------------------------------|
-------------------------------------------------------------------------|
-------------------------------------------------------------------------|
-------------------------------------------------------------------------|

-222017----------|-------------------------------------------------|
--------22-20-22-|-------------------------------------------------|
-----------------|-------------------------------------------------|
-----------------|-------------------------------------------------|
-----------------|-------------------------------------------------|
-----------------|-------------------------------------------------|

"Don't tell me stories cause yesterays's glories..."
|-------0---------------------------------5---------------0--------|
|-----------0--------3---5---3--------3-------3--------------0-----|
|-----6-------6----------------0----------------0-------6------6---|
|---7-----------7--5---5---------5--4---4---------4---7----------7-|
|-0-------------------------------------------------0--------------|
|------------------------------------------------------------------|

3.MAMA,I'M COMING HOME

E ---12---------------|
B ------12------------|
G ---------(13)b11--9-|
D --------------------|
A --------------------|
E --------------------|

E ----0-------0-------0-------0------0-------0-------0--------0----|
B ------0-------0-------0-------0------0-------0--------0--------0-|
G --9------8-------6-------4-------2------1------------------------|
D ------------------------------------------------4--------2-------|
A -----------------------------------------------------------------|
E -----------------------------------------------------------------|

  Times are strange... (2nd time through)

E ----0-------0-------0-------0------0-------0-------0--------0----|
B ------0-------0-------0-------0------0-------0--------0--------0-|
G --9------8-------6-------4-------2------1------------------------|
D ------------------------------------------------4--------6-------|
A -----------------------------------------------------------------|
E -----------------------------------------------------------------|


   Aadd2                      E5        Esus4
E --------0------------0------------0---------0-------0----|
B ----------0------------0------------0---------0-------0--|
G ------2------------2-----2------------1-1/2-----2/4------|
D ----2------------2--------------2------------------------|
A --0------------0--------------2--------------------------|
E ----------------------------0----------------------------|

                 Mama I'm...

Pre-chorus:

            C#min              A add2                Emaj      Esus4 Emaj
E ----------4------------------0---------------------0-----------0---0------|
B ----------5------------------0---------------------0-----------0---0------|
G ----------6------------------2---------------------1-----------2---1------|
D ----------6------------------2---------------------2-----------2---2------|
A ----------4------------------0---------------------2-----------2---2------|
E ---------------------------------------------------0-----------0---0------|

  (Well you took me in and you threw me out yeah you had me hypnotised)


   C#min              A add2                 Bmaj
E --4------------------0---------------------2-|
B --5------------------0---------------------4-|
G --6------------------2---------------------4-|
D --6------------------2---------------------4-|
A --4------------------0---------------------2-|
E ---------------------------------------------|

   (Lost and found and turned around by the fire in your eyes)


A add2                         Emaj
I've seen your face a thousand times...


Chorus:

     A     B               C      D     E
'cos mama, mama I'm comin' hoooooooooooooome


Mr.Scary (Gary Chapman)
----------------------------
s892011@minyos.xx.rmit.oz.au


From: Henrik Thomsson
Date: Wed, 13 Sep 95 13:30:15 +0200

Mama I'm coming home - Ozzy Osbourne
Transcribed by Henrik Thomsson
Email: h-thomss@dsv.su.se

This song really shows how good Zakk Wylde is at playing without having to
totally rip the guitar apart. This is how i play it and it sure sounds
close enough.
Tune down guitar one fret if you want to play while listening to the album.
Play it as you read it (no jumping around like in some other tabs!).

/	Slide up
\	Slide down
^	Hammer on or Pull off
( )	Ex. 12(14) Bend string on the 12 fret so it sounds like 14

INTRO:

Eb|-12------------|
Bb|----12---------|
Gb|-------13\11-9-|
Db|---------------|
Ab|---------------|
Eb|---------------|

LEAD RIFF: PLAY FIRST BAR THREE TIMES

Eb|-12^0---11---0---|-9^0---7---0---|-5^0---4---0---|-2^0---0-0-----|
Bb|------0--------0-|-----0-------0-|-----0-------0-|-----0-----0---|
Gb|-----------------|---------------|---------------|-------------1-|
Db|-----------------|---------------|---------------|---------------|
Ab|-----------------|---------------|---------------|---------------|
Eb|-----------------|---------------|---------------|---------------|

Eb|--------0-----|-------0-------|------0-----|-----0-------0---|
Bb|----0-----0---|---0-----0---0-|--0-----0---|-------0-------0-|
Gb|-/2---2-----2-|-2---2-----2---|1---1-----1-|-1/2-----2/4-----|
Db|--------------|---------------|------------|-----------------|
Ab|--------------|---------------|------------|-----------------|
Eb|--------------|---------------|------------|-----------------|

Eb|-12^0---11---0---|-9^0---7---0---|-5^0---4---0---|-2^0---0-0-----|
Bb|------0--------0-|-----0-------0-|-----0-------0-|-----0-----0---|
Gb|-----------------|---------------|---------------|-------------1-|
Db|-----------------|---------------|---------------|---------------|
Ab|-----------------|---------------|---------------|---------------|
Eb|-----------------|---------------|---------------|---------------|

Eb|--------0-----|-------0-------|------0-----|-----0-------0---|
Bb|----0-----0---|---0-----0---0-|--0-----0---|-------0-------0-|
Gb|-/2---2-----2-|-2---2-----2---|1---1-----1-|-1/2-----2/4-----|
Db|--------------|---------------|------------|-----------------|
Ab|--------------|---------------|------------|-----------------|
Eb|--------------|---------------|------------|-----------------|

POWERCHORDS:

| A | E | C# | A | B |

LEAD RIFF

Eb|-12^0---11---0---|-9^0---7---0---|-5^0---4---0---|-2^0---0-0-----|
Bb|------0--------0-|-----0-------0-|-----0-------0-|-----0-----0---|
Gb|-----------------|---------------|---------------|-------------1-|
Db|-----------------|---------------|---------------|---------------|
Ab|-----------------|---------------|---------------|---------------|
Eb|-----------------|---------------|---------------|---------------|

Eb|--------0-----|-------0-------|------0-----|-----0-------0---|
Bb|----0-----0---|---0-----0---0-|--0-----0---|-------0-------0-|
Gb|-/2---2-----2-|-2---2-----2---|1---1-----1-|-1/2-----2/4-----|
Db|--------------|---------------|------------|-----------------|
Ab|--------------|---------------|------------|-----------------|
Eb|--------------|---------------|------------|-----------------|

Eb|-12^0---11---0---|-9^0---7---0---|-5^0---4---0---|-2^0---0-0-----|
Bb|------0--------0-|-----0-------0-|-----0-------0-|-----0-----0---|
Gb|-----------------|---------------|---------------|-------------1-|
Db|-----------------|---------------|---------------|---------------|
Ab|-----------------|---------------|---------------|---------------|
Eb|-----------------|---------------|---------------|---------------|

Eb|--------0-----|-------0-------|------0-----|-----0-------0---|
Bb|----0-----0---|---0-----0---0-|--0-----0---|-------0-------0-|
Gb|-/2---2-----2-|-2---2-----2---|1---1-----1-|-1/2-----2/4-----|
Db|--------------|---------------|------------|-----------------|
Ab|--------------|---------------|------------|-----------------|
Eb|--------------|---------------|------------|-----------------|

POWERCHORDS:

| C# | A | E | E | C# | A | B | B |
| Fm# G#m | A | E | A | E |
| Fm# G#m | A | B | E | A |
| A | B | C | A | E | E | C | A | B | B |

RIFF BEFORE SOLO:

Eb|-3^0---5^0---0--0-----|-3-2-0---0-2-4--0----|-3^0---5^0---0--0-----|
Bb|-----0-----0------0---|-------3----------0--|-----0-----0------0---|
Gb|--------------------1-|--------------------1|--------------------1-|
Db|----------------------|---------------------|----------------------|
Ab|----------------------|---------------------|----------------------|
Eb|----------------------|---------------------|----------------------|

SOLO:
                       Repick bent string
Eb|-------------------------------------------------------------|
Bb|----------------------12(14)---(14)12^10--12--10--10^12^10-9-|
Gb|------9----9-11(13)------------------------------------------|
Db|-9^11---11---------------------------------------------------|
Ab|-------------------------------------------------------------|
Eb|-------------------------------------------------------------|

Eb|-------------------------------------------------------------|
Bb|----------------------12(14)---(14)12^10--12--10--10^12^10-9-|
Gb|------9----9-11(13)------------------------------------------|
Db|-9^11---11---------------------------------------------------|
Ab|-------------------------------------------------------------|
Eb|-------------------------------------------------------------|

Eb|------------------------------------14(16)-14(16)--12^14^12-|
Bb|------------------------------------------------------------|
Gb|------9----9----11(13)11^9-11--9-11-------------------------|
Db|-9^11---11--------------------------------------------------|
Ab|------------------------------------------------------------|
Eb|------------------------------------------------------------|

Eb|-14(16)14^12-14---16-17-18-19-19(21)-------------------|
Bb|-------------------------------------19(21)19^17----17-|
Gb|-------------------------------------------------18----|
Db|-------------------------------------------------------|
Ab|-------------------------------------------------------|
Eb|-------------------------------------------------------|

POWERCHORDS DURING SOLO:

| B |
| A | E | A | E |
| A | B | C# B A | A | B |

POWERCHORDS:

| C# | A | E | E | C# | A | B | B |
| Fm# G#m | A | E | A | E | E |
| A | B | E | A |

Eb|-----------0-----------0-----|
Bb|-------0-----0-------0---0---|
Gb|-1/2-2---2-----2/4-4-------4-|
Db|-----------------------------|
Ab|-----------------------------|
Eb|-----------------------------|

POWERCHORDS:

| C | A | E | E | C | A | E | E |
| C | A | E | E | C | A |

OUTRO RIF:

Eb|-12^0---11^0---|-9^0---7^0---|-5^0-4^0-5^0---4^0--|-2----0-|
Bb|------0------0-|-----0-----0-|-------------0-----0|------0-|
Gb|---------------|-------------|--------------------|------1-|
Db|---------------|-------------|--------------------|------2-|
Ab|---------------|-------------|--------------------|------2-|
Eb|---------------|-------------|--------------------|------0-|

4.DESIRE

Tune down 1/2 step: Eb Ab Db Gb Bb Eb


|-----------------------------------------------------------|
|-----------------------------------------------------------|
|-----------------------------------------------------------|
|-----------------------------------------------------------|
|-4-4---4-4-4---4-4-4---4-4-4-------------------------------|
|-2-2---2-2-2---2-2-2---2-2-2--and on and on...-------------|

                                                  ||1st================||
|-----------------------------------------------------------------------|
|--------------------------5--4-----------------------------------------|
|-2-----------4------------4--4---2-----------4----------------4^^(4)p2-|
|-2-----------4-------------------2-----------4----------2--------------|
|--------------------------------------------------------2--------------|
|-----------------------------------------------------------------------|

2nd=====================================||
|-----------------------------------------|
|-----------------------17--17--17--17-\--|
|-----------------------16^-16^-16^-16^\--|
|-----------------------------------------|
|-4--4----4--4--4--/-\--------------------|
|-2-------2--2--2-------------------------|

|---------------------------------------------------------------------|
|---------5------x------------5------5-4-------------5----x-4---------|
|---------4------x--4---------4------4-4-------------4----x-4---------|
|-4-------2------x--4---------2------2-4------4------2----x-4------2--|
|-4-----------------2-----2-2----2-2----------4-------------2----2-2--|
|-2--2-2----------------------------------x-x-2--0-2-------------0-0--|

|------------------------------------------------------------|
|---------5------x-----------5------5-4----------------------|
|---------4------x--4--------4------4-4----------------------|
|---------2------x--4--------2------2-4------4---------------|
|-4-----------------2----2-2----2-2----------4---------------|
|-2--0-2---------------------------------x-x-2--0-2----------|repeat as above...

"I always knew what i wanted to be..."
|--------------------------------------------------------------------|
|--------------------------------5--5--------------------------------|
|-PM...........................--4--4--------4--4--------------------|
|--------------------------------2--2--------4--4--------2-----2-----|
|-4-4-4-4-4-4-4-4-4-4-4-4-4-4-4--------------2--2-----2--2-----2--4--|
|-2-2-2-2-2-2-2-2-2-2-2-2-2-2-2-----------------------0--0-----0--2--|

"It drives them crazy....cause i wont be cool"
|-----------------------------------------------------------|
|---------------5-------------------------------------------|
|---------------4-----------------4-----------------2-------|
|-2p0-----------2-----------------4-----------------2-------|
|-2p0--4--4--4-----------4--4--4--2--------4--4--4--0-------|
|------2--0--2-----------2--0--2-----------2--0--2----------|

"It's the same old desire..."
|-----------------------------------------------------------|
|-----------------------------------------------------------|
|-4--4--4--4--4-------------2--------------------4~~~~~~--2-|
|-4--4--4--4--4-------4-----0------2---2------x--4--------2-|
|-2--2--2--2--2---4---4-----0------2---2------x-------------|
|-----------------2---2--------------0----------------------|

HALF TIME FEEL:
|----------------------------|------------------------------|
|-----------------PH---------|-------------PM---------------|
|------------------4~~~~~~~--|--------------4~~~~--2--------|
|------------------4---------|--------------4------2--------|
|-2-4------4-----------------|-2-4------4-------------------|
|-0-2----0-2-----------------|-0-2----0-2-------------------|

|------------------\--//-----|------------------------------|
|-------------PH-4^\\//------|-------------PM---------------|
|----------------4^-^^-------|--------------4~~~~--2--------|
|----------------------------|--------------4------2--------|
|-2-4------4-----------------|-2-4------4-------------------|
|-0-2----0-2-----------------|-0-2----0-2-------------------|end half time feel


Solo:
|-7-----------7----------7-----------7----------7----------------|
|---10p7-10^----10p7-------10p7-10^----10p7-------10p7-----10/12-|
|--------------------9^---------------------9^---------10^-------|
|----------------------------------------------------------------|
|----------------------------------------------------------------|
|----------------------------------------------------------------|

|-9----------9----------10-10-----12------12---14-------------------------|
|---12p9-12^---12p9--------13^----15^-----15^--17^-17^17^17^17^17^17^-^17-|
|-------------------11^---------------------------------------------------|
|-------------------------------------------------------------------------|
|-------------------------------------------------------------------------|
|-------------------------------------------------------------------------|

|-14--------19^\-|---------------------2-5-|-2h5p2---\--//--|
|-----17~~-------|-----------------2-5-----|-------4^\\//---|
|----------------|-------------2-4---------|-------4^-^^----|
|----------------|---------2-4-------------|----------------|
|----------------|-----2-4-----------------|----------------|
|----------------|-2-5---------------------|----------------|

|-------------------------|---21-----------21^--^21--21--20--19-|
|-21^-^21p19----19~~-21^--|------21^--19--x---------------------|
|------------20-----------|---------------x---------------------|
|-------------------------|-------------------------------------|
|-------------------------|-------------------------------------|
|-------------------------|-------------------------------------|

|-19^-19^-19^-19^-19p17-------|-----------------------|
|-----------------------19^-\-|----2-5p2----2-5p2-----|
|-----------------------------|-4^-------4^-------4^--|
|-----------------------------|-----------------------|
|-----------------------------|-----------------------|
|-----------------------------|-----------------------|

|------------------------|----------------------------------|
|----7-10p7----7-10p7----|------9-12p9------9-12p9----------|
|-9^--------9^--------9^-|-11^---------11^---------11^~~----|
|------------------------|----------------------------------|
|------------------------|----------------------------------|
|------------------------|----------------------------------|

|---------------------------14-|-171614--14-191714--14-171614--14-191714--14-|
|------14-17p14--17^--\-/17----|-------17---------17---------17---------17---|
|-16^--------------------------|---------------------------------------------|
|------------------------------|---------------------------------------------|
|------------------------------|---------------------------------------------|
|------------------------------|---------------------------------------------|

|-171614---14-191714---14-19^~~~--\-|
|-------17----------17--------------|
|-----------------------------------|
|-----------------------------------|
|-----------------------------------|
|-----------------------------------|
Palm Mute:
|---------------------------------|---------------------------------|
|---------------------------------|---------------------------------|
|-4-2-----4-2-4-2-----4-2-4-2-----|-4-2-4-2-----4-2-4-2-----4-2-----|
|-----4-2---------4-2---------4-2-|---------4-2---------4-2-----4-2-|
|---------------------------------|---------------------------------|
|---------------------------------|---------------------------------|
w/ slide:
|-----------------------------------------------------------|
|----------5-/(6)/-7---7-/-9--9-/-12--14/----17^------------|
|--3-/-4-/-5-/(6)/-7---7-/-9--9-/-12--14/-------------------|
|--3-/-4-/-5-/(6)/-7---7-/-9--9-/-12------------------------|
|-----------------------------------------------------------|
|-----------------------------------------------------------|

5.NO MORE TEARS

drop D tuning and 1/2 step down

intro (bass arranged for guitar)
RIFF #1                             (w/slide) steady gliss(don't pick)
-----||----------------------------||-(10)/(13)/(14)/------------------|
-----||----------------------------||-(10)/(13)/(14)/----(15)\(14)\----|
-----|.----------------------------.|------(13)/(14)/----(15)\(14)\----|
-----|.---------H---------H------H-.|----------------------------------|
---H-||-------3-5-------3-5----3-5-||----------------------------------|
-3-5-||-0--0------0--0------0------||----------------------------------|

(w/slide)                          f^^^^^                        ^^^^^
-----------------------------||----------------------------------------|
-----------------------------||----------------------------------------|
-(8)/(12)\(10)\----(3)/(10)--|.--5/7----/12\11/12\11-------------------|
-(8)/(12)\(10)\----(3)/(10)--|.--5/7------------------12-------\10-----|
-----------------------------||---------------------------12---\10-----|
-----------------------------||----------------------------------------|
(w/slide)               (no slide)
     ^^^^^   ^^         riff #2                                P.H.^^^
----------------/13\--||------------------------------------------------|
----------------/13\--||------------------------------------------------|
--7/10----7/12--------.|------------------------------------------------|
--7/10----7/12\-------.|--0-------0-3-0-/6--5-3-5-3---/6--------------0-|
----------------------||--0-------0-3-0-/6--5-3-5-3---/6--5-----------0-|
----------------------||--0-------0-3-0-/6--5-3-5-3-0-/6--5-3-5-3(PH)-0-|
                                  . . .     . . . . .
  ..is a crack in the sky.                                   ..blink of

(w/slide)                   ^^^^                riff #3 (no slide)
----------------------------------------------||-----------------------|
----------------------------------------------||----------5------------|
--0/10-0--/13--12\10/12\10/13----12\10/12\10\-.|----------4------------|
--0/10-0--/13--12\10/12\10/13----12\10/12/10\-.|-0--------2------------|
----------------------------------------------||-0--------2------------|
----------------------------------------------||-0--0-0-0-2--0-0-0-0-0-|
                                                (PM). . .    . . . . .
an eye                                             Your mamma told you
[ Tab from: http://www.guitartabs.cc/tabs/o/ozzy_osbourne/no_more_tears_tab_ver_2.html ]
                              tr^^^^^
----------------------------------------------------------------------|
----6-------------------------TR------------------5----------------6--|
----5------------3(3)--------353------------------4----------------5--|
----3------------3(3)----3/5---------0------------2----------------3--|
----3------------1(1)----------------0------------2----------------3--|
-00-3--0-0-0-0-0---------------------0--0-0-0-0-0-2--0-0-0-0-0--00-3--|
 ..    . . . . .                        . . . . .    . . . . .  ..
         ...to talk to strangers.       Look in the mirror

                        (w/slide)steady gliss   (no slide at riff #4)
                  tr^^^^  ^^^^^              riff #4
--------------------------------------/13\-||------------------------|
------------------TR-----/9-----/10---/13\-||------------------------|
-----------3-----353----4/9----5/10--------|.---7----5----4----3-----|
-----------3--8---------4/9----5/10--------|.-0----0-----------3-----|
-----------1--8----------------------------||----------/5----5-------|
-0-0-0-0-0----8----------------------------||------------------------|
 . . . . .
                                     No more tears.

(3 times)
---------||
---------||
---------.|
---------.|
-5-6-5-3-||
-5-6-5-3-|| verse starts with riff #2,
 . . . .
No more...


Guitar Solo
   ^^^^^                     ^^         ^^^^^                   ^^^^^^
-----------------------------------------------------------------------|
----------------10---B(full)------------------B(full)----P---B---------|B(full)
--11----11--12------12------12--11--9--10----12-----(12)10--12-12------|
-----------------------------------------------------------------------|
-----------------------------------------------------------------------|
-----------------------------------------------------------------------|

^^^^^^     ^^^^              ^^^^^^^            ^^^^^^   B(full)   B
-----------------------------B(full)-B(full)----B(1.5)--15(15)13--15--|
--B(full)---------------10--13------15(15)13---15---------------------|
-12(12)---11----11--12------------------------------------------------|
----------------------------------------------------------------------|
----------------------------------------------------------------------|
----------------------------------------------------------------------|

   B     B   B    B   B                 ^^^^
--15----15--15---15--15(15)13-14----x---B---10-----------10--B--------|
---------------------------------15-x--13------13-10--B-----12(12)----|
-----------------------------------------------------12--------10-----|
------------------------------------------------------------------12--|
----------------------------------------------------------------------|
----------------------------------------------------------------------|

                                                ^^^^^
---------B(.25)-------------------------------------------------------|
-12-----10--------------P--P--------12----10-------------P--P------12-|
-12-----10------------13-12-10------12----10B(.5)------13-12-10----12-|
----12-----12-10---12----------12------12------12---------------12----|
----------------------------------------------------------------------|
----------------------------------------------------------------------|

                                 ^^^^^                      (.25)
---------------------------------B----10---P--------10---P---B--|
------------12----10------------13-------13-10--B------13-10-8--|
-12-10------12----10B(.5)----------------------12---------------|
-------12------12---------12-10---------------------------------|
----------------------------------------------------------------|
----------------------------------------------------------------|

                           B    B                   B(.5) B    B(.5) B
--------------------------15---15(15)--13----15----13----15---13----15-|
-10--B---P-------------------------------(15)--(15)--(15)--(15)---(15--|
----12(12)10---12-10---------------------------------------------------|
---------------------12------------------------------------------------|
-----------------------------------------------------------------------|
-----------------------------------------------------------------------|

  B      B(.5) ^^^^^
-15(15)-13-----------13-10-13-10-------13-10-13-10-------13-10-13-10------|
--------------15----------------13-10-------------13-10-------------13-10-|
--------------------------------------------------------------------------|
--------------------------------------------------------------------------|
--------------------------------------------------------------------------|
--------------------------------------------------------------------------|


-13-10-13-10-------15-13-15-13-------15-13-15-13-------15-13-15-13------|
------------13-10-------------15-13-------------15-13-------------15-13-|
------------------------------------------------------------------------|
------------------------------------------------------------------------|
------------------------------------------------------------------------|
------------------------------------------------------------------------|


-15-13-15-13-------17-15-17-15-------17-15-17-15-------17-15-17-15------|
------------15-13-------------18-15-------------18-15-------------18-15-|
------------------------------------------------------------------------|
------------------------------------------------------------------------|
------------------------------------------------------------------------|
------------------------------------------------------------------------|


-17-15-17-15-------18-15-13--18-15-13--18-15-13--18-15-13--20-17-15---|
------------18-15----------15--------15--------15--------15--------17-|
----------------------------------------------------------------------|
----------------------------------------------------------------------|
----------------------------------------------------------------------|
----------------------------------------------------------------------|

                                B^^^
-20-17-15--20-17-15--20-17-15--20---(20)\-----------------------------|
---------17--------17--------17---------------------------------------|
----------------------------------------------------------------------|
----------------------------------------------------------------------|
----------------------------------------------------------------------|
----------------------------------------------------------------------|

fill before returning to riff #2
(w/slide)
    ^^^^                       ^^^^    ^^^^^
----------------------------------------------------/15\--------------|
---(7)---8\7--8--(8)\7------------------------------/15\--------------|(SHAKE SLIDE)
--5/7-------------------7-----\5--(5)/10------9/12--------------------|
--5/7----------------------7--\5--(5)/10------9/12--------------------|
----------------------------------------------------------------------|
----------------------------------------------------------------------|

6.SIN

Intro:
|---2-----------------------------|---2-------------------0------|
|-3---3-----2-------3-------3-----|-----3-----2-------3----------|
|-4-----4-----2-------0-------0---|-------4-----2-------0--------|
|-4-------------4-------4-------4-|---------------4--------------|
|-2-------0-----------------------|-2-------0--------------------|
|-----------------3---------------|-----------------3------------|

|---2---------------------0--------|-----------------------|
|-3---3-----2-------3-----0-strum--|--------3---------2----|
|-4-----4-----2-----0-----0--------|-----------0------2----|
|-4-------------4---4-----2--------|-----------0------2----|
|-2-------0---------------2--------|------------------0----|
|-----------------3---2---0--------|-0-2-3-----------------|

Intro Lead:
|------------------|-----------------------------|---------|
|------------------|----10^-^10-7--10--10^-~~~~~~~~~~~~~~--|
|----7-9-9^~~~~~~--|-^9--------------------------|---------|
|-/9---------------|-----------------------------|---------|
|------------------|-----------------------------|---------|
|------------------|-----------------------------|---------|

|---12^-^12--10h12--12^~~~~~~~~-10-12-12^^12-10^^10--------|
|-x-------------------------------------------------12~~~~-|
|-x--------------------------------------------------------|
|----------------------------------------------------------|
|----------------------------------------------------------|
|----------------------------------------------------------|

|--------------------------|--------------------------------|
|-----------------------------------------------------------|
|------------------7----------------------------------------|
|-----------7--9-7---7-9^-----------------------------------|
|-----5-7/9-------------------------------------------------|
|-5-7-------------------------------------------------------|end intro


|---------------0-----------------------------------0------|
|---------------0-----------5-----------------------0------|
|----2----------------------4---4----------2---------------|
|-0--2------2---2-----------2---4-------0--2-----2--2----5-|
|-0--0------2---2---------------2-------0--0-----2--2----3-|
|-----------0---0--------------------------------0--0------|

"A psycho driver..."                    "Silence broken..."
|---PM.............................---|-0--------------------------|
|-------------------------------------|-0--------------------------|
|-4-----------------------------------|-----------2--------5-------|
|-4---------------------------------0-|-2---------2--------5-------|
|-2--2-2-2-2-2-2-2-2-2-2-2-2-2-2-2--0-|-2---------0----0-0-3-------|
|-------------------------------------|-0--------------------------|

"I can hear them, i can hear them...someone wake me..."
|-------0---------|-------0--------|-------0------|---------------------------|
|-3---------3-----|----------0-----|----------3---|---------------------------|
|-2-----------2-0-|-----2------0---|-----4------4-|-----4-----4-----4-----0h4-|
|-0--0----------0-|---2----------0-|---4----------|-----5-----5-----5-----0h4-|
|-0--0------------|-4--------------|-2------------|-----5-----5-----5-----0h2-|
|-----------------|----------------|--------------|-0-0-3-x-x-3-x-x-3-x-x-----|

|------------------|------------------|------------------|
|------------------|---------22-------|------------------|
|---------77-------|-----22------22---|---------44-------|
|-----77------77---|---22--22--22--22-|-----44------4422-|
|-5555--55--55--55-|-44---------------|-2222--22--22-----|
|------------------|------------------|------------------|

                   1)================================|
|------------------|------------------|--------------|
|------------------|------------------|--------------|
|------------------|------------------|--------------|
|------------------|------------------|--------------|
|-----55--44--22---|-----44--775577---|-779955774455-|
|-3333--33--33--33-|-5555--55------55-|--------------|

2)==========================
|----------------|-----------------|
|----------------|-----------------|
|----------------|-----------------|
|----------------|-----------------|
|-----44--5544---|-44--55--44--55--|
|-5555--55----55-|---55--55--55--55|


"Whoa...who turned out the lights..."
|-------------------------------|-----------------------------|
|-------------------------------|-----------------------------|
|-4-4---x-2-2-----------------2-|-4-4--x-2-2----------------5-|
|-4-4---x-2-2-----------------2-|-4-4--x-2-2----------------5-|
|-2-2---x-0-0------5---4---2--0-|-2-2--x-0-0------5---4---2-3-|
|--------------2/3---3---3------|-------------2/3---3---3-----|
"Whoa....it wasnt meant to be
|----------------------------------------------------------|
|----------------------------------------------------------|
|-4-4--x-2-2-----------------------------------------------|
|-4-4--x-2-2-----------------------------------------------|
|-2-2--x-0-0------5---4---2-5-5-4--------------------------|
|-------------2/3---3---3---3-3-2--x-x---------------------|

"I cant take this alone, dont leave me on my own tonight...."
|----------------------------------------------------------------|
|-5---------5-7-------8---/10-10-10-10-10-10-10-10-10-10---------|
|-4---------4-6-------7---/9--9--9--9--9--9--9--9--9--9----------|
|-2---------2-4-------5---/7--7--7--7--7--7--7--7--7--7----------|
|----------------------------------------------------------------|
|----------------------------------------------------------------|

|--------------------------------PM............------------|
|--------------------7--8----------------------------------|
|------------------x-6--7-------2--------------------------|
|-5-4-3----2-------x-4--5-------2-2-2-2-2-2-2-2------------|
|-5-4-3----2-------x------------0-0-0-0-0-0-0-0------------|
|-3-2-1----0-----------------------------------------------|

Solo:
|--------------------|------------------PH------|
|-7^---7^-7^---7^-7^-|---7^-7^---7^-----9^-^9p7-|
|-7^---7^-7^---7^-7^-|---7^-7^---7^-----9^-^9p7-|
|----9-------9-------|-9-------9----------------|
|--------------------|--------------9-9---------|
|--------------------|--------------------------|

|-PH---------------|-7---------7---------------------------|
|--9^-^9~~--10^~~~-|---10p7----7---------------------------|
|--9^-^9-----------|--------9^---9^-^9-7---9---7^----------|
|------------------|---------------------9---9-----9-7-----|
|------------------|-----------------------------------9---|
|------------------|---------------------------------------|

|---------------------|------------------------|
|-7^-7^---7^-7^---7-7-|---7^-7^---7^----7\-----|
|-7^-7^---7^-7^---7-7-|---7^-7^---7^----7\-----|
|-------9-------9-----|-9-------9-----9--------|
|---------------------|--------------------/14-|
|---------------------|------------------------|

|----------------------------------------14~~-|
|----------12~~-----------15~~--17-15---------|
|-14-11----9-----16-14----11----------16-14---|
|-12--9-14-------14-12-16-------16-14---------|
|-------12-------------14-------------16------|
|---------------------------------------------|
                                ~~~~~~~~~~~~~~~~~~~~~~~~~~~~~~~~~~
|----------17------------19~~~-|-12131210----12131210----12131210-|
|-19-17---------22-19----------|---------1210--------1210---------|
|-------19-16---------21-19----|----------------------------------|
|-19-16---------21-19----------|----------------------------------|
|-------19------------21-------|----------------------------------|
|------------------------------|----------------------------------|

|-----12131210----1210-----12^-^12p10-|-12~~\x-22^---22p19-|
|-1210--------1210----1210-12^-^12----|-----\x-------------|
|-------------------------------------|--------------------|
|-------------------------------------|--------------------|
|-------------------------------------|--------------------|
|-------------------------------------|--------------------|

|-22-19----------19-22-19----------------------------------|
|-------22-19-22----------22-19----------------------------|
|-------------------------------21-19-21-19-------21^--\---|
|-------------------------------------------21-19----------|
|----------------------------------------------------------|
|----------------------------------------------------------|

|---------------------|--------------------|
|-22-21-19------------|--------------------|
|----------22-21-19^--|-PH-----------------|
|---------------------|-21-19^-------------|
|---------------------|--------21-20-19-17-|
|---------------------|--------------------|

|-------------------------------1717171917--17--17-22^~~~~\-|
|-------------------171717191719----------19--19------------|
|-------161616191619----------------------------------------|
|-191619----------------------------------------------------|
|-----------------------------------------------------------|
|-------------------------------------------end of solo-----|


Outro Solo:
|----------------------------|---------------------------------|
|-9^-^9-----7-10-7----7-10p7-|----7----------------------------|
|-9^-^9^~~---------9^--------|-10---9^--7---9---7^-------------|
|----------------------------|------------9---9----9p7---7-9-7-|
|----------------------------|-------------------------9-------|
|----------------------------|---------------------------------|

|-------------------|------------------------|
|-------------------|10--10-10---------------|
|-PH---------7--9^--|-9^--9^-9^-^9p7-9^~~-/--|
|-9~~--------7------|------------------------|
|------7-8-9--------|------------------------|
|-------------------|------------------------|

|--------------141914--141714--141914--141714\---17-----/22-19----------x19------|
|-----22-\-/17-------18------18------18-------/19--19-16------22-19-22^-x--22p19-|
|-21^----\-----------------------------------------------------------------------|
|--------------------------------------------------------------------------------|
|--------------------------------------------------------------------------------|
|--------------------------------------------------------------------------------|

|-22^-22^-19-----19------|-22^-22^-19--------|
|---------22^------22p19-|---------22^-22^~~-|
|------------------------|-------------------|
|------------------------|-------------------|
|------------------------|-------------------|
|------------------------|-------------------|

|---------------------19-------------------------|
|-22^-^22-192219----19--22p19-----19-------------|
|---------------21^----------21^--21^-^21p19-----|
|-------------------------------------------21---|
|------------------------------------------------|
|------------------------------------------------|

|-----------------------------------------|
|-----------------------------------------|
|-21--19^-----------------19-21-21--19-21-|
|---21----21-19--21--19-21--------21------|
|--------------21--21---------------------|
|-----------------------------------------|

|------------------------------------------------19-22^-|
|--19----191922p19-----19-------------------19h22-------|
|--21^----------21^----21^-^21p19--21--19-21------------|
|--------------------------------21--21-----------------|
|-------------------------------------------------------|
|-------------------------------------------------------|

7.HELLRAISER

|-----------------------|------------------------|
|-PH--------------------|-PH---------------------|
|--5^-^(5)p3----3--3----|--5^-^(5)p3---3--3-5----|
|------------5--3----5--|------------5-3--3-5----|
|------------5----------|-------------------3----|
|-----------------------|------------------------|

CHORDS GO WITH LYRICS:

"..sometimes it feels so tough, but I still ain't had enough.
                                                      C5

"I keep saying that its getting too much...but I know i'm a liar..."
 G5         C5          G5               C5    G5     C5    G5

"Feeling alright..."                  "But thats what lights my fire..."
|-----------------------------------------|------------------------6^-|
|-----------------------------------------|---------------------------|
|--------5----------------------3~~---5~~-|-------5-------------------|
|-3---x--5----------------------3-----5---|-3---x-5--------5-5-5------|
|-3---x--3--PM.................-----5-----|-3---x-3--3-3-3-3-3-3------|
|-1---x-------1-1-2-2-3-3-1-2-3-----------|-1---x----------------3----|

"Hellraiser.....in the thunder and heat..."
|------------------------------------------------------------|
|--------------x-6-------------------------------------------|
|---------3----x-5-----5---5^-^(5)p3---3^-3------------------|
|-----5---3----x-3-----2-------------5------5----------------|
|-----5---1--------------------------------------------------|
|-----3------------------------------------------------------|and so on....

INTERLUDE: all palm mutes:
|---------------------------------|---------------------------------|
|---------------------------------|---------------------------------|
|---------------------------------|---------------------------------|
|---------------------------------|---------------------------------|
|-------------------5-5-5-3-4-----|-------------------3-3-3-1-2-----|
|-3-3-4-4-5-5-3-4-5-----------5-3-|-1-1-2-2-3-3-1-2-1-----------3-5-|

|---------------------------------|------------------------------|
|---------------------------------|------------------------------|
|---------------------------------|---3---------3---------3------|
|---------------------------------|---3----3----3----3----3----3-|
|-------------------5-5-5-3-4-----|-1-1----3--1-1----3--1-1----3-|
|-3-3-4-4-5-5-3-4-5-----------5-3-|------1-1-------1-1-------1-1-|

SOLO:
|-----------------------------------------------------------|
|-5^-----T------------T-------------------------------------|
|-5^--p3-21^--^-^-p5-21--5^--p3-5~~~~~----------------------|
|-----------------------------------------------------------|
|-----------------------------------------------------------|
|-----------------------------------------------------------|

|----------------------------------------------15-18-18-15--|
|----------------------------15-18----------18--------------|
|----------15-17-------------------15-17-15-----------------|
|----------------15-17-15-17--------------------------------|
|-17-15-17--------------------------------------------------|
|-----------------------------------------------------------|

-------------------------------|----------------------------|
-18-15-------18-15-------------|-18^--^(18)p15-18^~~~~~-----|
-------17-15-------15-14-------|----------------------------|
-------------------------17-15-|----------------------------|
-------------------------------|----------------------------|
-------------------------------|----------------------------|

|---------------------------------------------------|
|-17^-^17----------17^-^17-----------17^-^17--------|
|-17^-^17p15-------17^-^17p15--------17^-^17p15-----|
|------------17-15-------------17-15------------17--|
|---------------------------------------------------|
|---------------------------------------------------|

|---------------------------------------------|-------------|
|-------15-----------------------------18-----|-------------|
|-18----------18----17----17^-^(17)p15----17^-|-------------|
|----17----17----17----17---------------------|-------------|
|---------------------------------------------|-------------|
|---------------------------------------------|-------------|

      decrease magnitude of bend.
|-20^-20^20^20^20^20^20^20^20^-20^^^(20)-18-----|-----------|
|-------------------------------------------20--|-----------|
|-----------------------------------------------|-----------|
|-----------------------------------------------|-----------|
|-----------------------------------------------|-----------|
|-----------------------------------------------|-----------|

|-18-15-------------------------------------------18^~~~~---|
|-------18-15-------18-15-----------------------------------|
|-------------17-15-------17-15-------17-15-----------------|
|-------------------------------17-15-------17-15-----------|
|-----------------------------------------------------------|
|-----------------------------------------------------------|

ENDING:
|----------------play 3 times|------------------------|
|----------------------------|------------------------|
|-------5-----------3--x-2---|-------5----------3--2--|
|-------5-----------3--x-3---|-------5----------3--3--|
|----------------------------|------------------------|
|-3-3-3-----3-3-3-3----------|-3-3-3-----3-3-3--------|

8.TIME AFTER TIME

Don't Know

9.ZOMBIE STOMP

Tune down 1/2 step: Eb Ab Db Gb Bb Eb

|----------------------------------------------------------|
|----------------------------------------------------------|
|----------------------------------------------------------|
|-4444-4444444444444444-222-3-4444444444444-222-3-4444444--|
|----------------------------------------------------------|
|----------------------------------------------------------|

|----------------------------------------------------------|
|----------------------------------------------------------|
|--------22----------22------------------------------------|
|-444444----422444444--424444-4444444444-2-4444------------|
|----------------------------------------------------------|
|---------------------------------------------continue-----|

4 times:          1,2,3)=================4)================|
|----------------------------------------|--------PH-------|
|-5-------4--5---------------------------|---------4^-^----|
|-4-------4--4----------------11-11-9-11-|---------4^-^----|
|-4-------4--4-----4----------11-11-9-11-|-2---------------|
|-2-------2--2-----4-----------9--9-7--9-|-2---------------|
|------------------2---------------------|-0---------------|

|---------------------------|------------------------------|
|---------------------------|-------------------PH---------|
|-1/2---------------------2-|-1/2----------------4~~-------|
|-1/2---------------------2-|-1/2----------------4---------|
|-------------------------0-|------------------------------|
|-----2-2-2-2-0-2---2-2-2---|-----2-2-2-2-0-2--x-----------|

"I dont need no doctor..."
|----------------------------------------------------------|
|----------------------------------------------------------|
|------------------2--4------------------------------------|
|-4----------------2--4--------------2---------------------|
|-4-------------------2--------4-3-2-2--(back to main riff)|
|-2----------2-4-5-------------------0---------------------|

"Searching for a different ride..."
|----------------------------------------------------------|
|-7-----------5---------3----------5-----------------------|
|-6-----------4---------2----------4-----------------------|
|-4-----------2---------0----------2----4-4-7-7-6-6-6-6----|
|-----------------------0----------------------------------|
|----------------------------------------------------------|
"Why cant they just let me be..."
|----------------------------------------------------------|
|-7-----------5---------3----------------------------------|
|-6-----------4---------2---------4-------4-4---2----------|
|-4-----------2---------0---------4-------4-4---2---4------|
|-----------------------0---------2-------2-2---0---4------|
|---------------------------------------------------2------|

Solo:
|----------------------------------------------------------|
|----------------------------------------------------------|
|-/8---------/8---\7-----6---\-/8----8/11---10\------------|
|----------------------------------------------------------|
|-/6---------/6---\5-----4---\-/6----6/9-----8\------------|
|----------------------------------------------------------|

|------------------------------------trill=========================================|
|-17^-^17^^^^------17^~~~~~---19^\-/141714-131513-121512-11141114-101310-9129-8118-|
|----------------------------------------------------------------------------------|
|----------------------------------------------------------------------------------|
|----------------------------------------------------------------------------------|
|----------------------------------------------------------------------------------|

|--------------------------------|-----------------------------|
|-14-14-14----14-14----14-14-----|-----------------------------|
|-14-14-14----14-14----14-14-----|----5---5-----5-----5--------|
|----------16-------16-------16\-|-5-6-5-6--5-6---5-6---4^-2---|
|--------------------------------|---------------------------4-|
|--------------------------------|-----------------------------|

|-----------------------|----------|-----------------------------------|
|-2-2-2----2-2----2-2---|-2--5--7--|------------(all bends)------------|
|-2-2-2----2-2----2-2---|-4^-7^-9^-|-----------------------------------|
|-------4------4------4-|----------|-16-16-16-16-16-16-16-16-16-16-16--|
|-----------------------|----------|-----------keep bending...---------|
|-----------------------|----------|-----------------------------------|
end of solo

|--------------------------------|------------------------------|
|--------------------------------|------------------------------|
|--------------------------------|------------------------------|
|--------------------4-4-2-2-----|--------------------------2^--|
|-4-4-2-4--2-4-4-4-2---------4-2-|-4-4-2-4--2-4-4-4-4-2-3-4-----|
|--------------------------------|------------------------------|

|--------------------------------|------------------------------|
|--------------------------------|------------------------------|
|--------------------4-4-2-2-----|---------4-4-------------4-2^-|
|-4-4-2-4--2-4-4-4-2---------4-2-|-2-2-2-2-----2-2-1-1-1-1------|
|--------------------------------|------------------------------|
|--------------------------------|------------------------------|

10.A.V.H.

Tune down 1/2 step: Eb Ab Db Gb Bb Eb

|--------------------|----------------------|-------------------|
|---/12---8/9--------|---7---7--7/9--9~~-\7-|-------------------|
|-------------9~~--\-|---7---7--7/9--9~~-\7-|-------------------|
|--------------------|----------------------|-------------------|
|--------------------|----------------------|-------------------|
|-0------------------|-0---0----------------|-------------------|

                      ((1st time==============||((2nd time=============
|--------------------|------------------------||----------------|
|---/12---8/9--------|-----12----12/13-/13--\-||---9-8-7-\--\---|
|-------------9~~--\-|--12----12-------/14--\-||---9-8-7-\--\---|
|--------------------|------------------------||-------7-\--\---|
|--------------------|------------------------||----------------|
|-0------------------|------------------------||-0--------------|

|-------0--------------0--------------------0--------------x\---|
|-------0--------------0--------------------0--------------x\---|
|-7--7--9--------7--7--9--------------7--7--9-----------2-------|
|-7--7--9--------7--7--9--------------7--7--9-----------2-------|
|-5--5--7--------5--5--7--------------5--5--7-----------0-------|
|--------------------------/19\-\-------------------3^----------|

                                 ((1st time====================))
|--------------------------------|------------------------------|
|--------------------------------|------------------------------|
|-x-x---x---x-x-----x14p12--12h13|-x-x---x---x-x-----x-x--------|
|-x-x-9-x11-x-x12p9-x-----14-----|-x-x-9-x11-x-x12p9-x-x--14\---|
|--------------------------------|------------------------------|
|--------------------------------|------------------------------|
|                                |                              |
|--------------------------------|------------------------0-----|
|--------------------------------|------------------------5-----|
|--------------------------------|------------------------4-----|
|--------------------0-7-0---5p0-|------------------------2-----|
|-----2----4-----5p0-------7-----|-----2----4-----5p0-0-0-------|
|-0-0----0---0-0-----------------|-0-0----0---0-0---------------|

((2nd time==========))
|--------------------|
|--------------------|
|-x-x----x-----x-----|
|-x-x-9--x-11--x-12--|
|--------------------|
|--------------------|
|                    |
|--------------------|
|--------------------|
|--------------------|
|-----4----6-----7---|
|-----2----4-----5---|
|-0-0----0-----0-----|

"I get up and I get down..."
|-0-------------------------------------------------------------|
|-0-------------------------------------3-----------------------|
|-9------------x-11-12-----------12\----2-------2----2----------|
|-9------------x-10-12-----------12\----0-------2----2--0-------|
|-7------------x--9-10-----------10\----0-------0----0--0-------|
|---------------------------------------------------------------|

"I love the feeling when the magic is just right."
|-------0---------|-----------------|-----------------|-----------------------------|
|-3---3-----3-----|-------5---------|-------3---------|-----------------------------|
|-2-2---------2---|-----2-----2-----|-----2-----2-----|-7/9-xx-9/11xx11/13-xx-13/14-|
|-0-------------0-|---2---------2---|---2---------2---|-----------------------------|
|-0---------------|-4-------------4-|-3-------------3-|-5/7-xx-7/9-xx-9/11-xx-11/12-|
|-----------------|-----------------|-----------------|-----------------------------|

"Riding on a train that I cant control..."
|----------------------------------------|
|-3--------------------------------------|
|-0----------------2-----2---------2-----|
|-0----------------2-----2---------2-----|
|------------------0-----0--PH-----0-----|
|-3---2---0---3^------------3^~~------3^-|

Solo:
|---------------------------------12----------------------------|
|-5--------8-------10-----12----12---15^~~~~~~~~~~~~~~~~~~~-----|
|-7^~~~~--10^~~~~--12^~~--14^~~---------------------------------|
|---------------------------------------------------------------|
|---------------------------------------------------------------|
|---------------------------------------------------------------|

|-15-------17^~~--15-------17^~~--15-------17^~~-|
|----17p15-----------17p15-----------17p15-------|
|------------------------------------------------|
|------------------------------------------------|
|------------------------------------------------|
|------------------------------------------------|

|-17^--p15----17----15-16------------|/12-----------12------------------------|
|----------17----17-------17-17~~~-\-|----15p12--------15p12----12------------|
|------------------------------------|----------14^----------14----14^-p12~~~-|
|------------------------------------|-------------------------------------14-|
|------------------------------------|----------------------------------------|
|------------------------------------|----------------------------------------|

|-12h14~~~--12~~~---------12-9-12-9-|-12h14~~~--12~~~--x14^-----|
|-------------------12h14-----------|------------------x--------|
|-----------------------------------|---------------------------|
|-----------------------------------|---------------------------|
|-----------------------------------|---------------------------|
|-----------------------------------|---------------------------|

|-14^--14^-p12-14p12----/17-|-1917161716161614--14---------------------------|
|--------------------15-----|-----------------17--1714-17p15p14--------------|
|---------------------------|-----------------------------------16^-p14-16~~-|
|---------------------------|------------------------------------------------|
|---------------------------|------------------------------------------------|
|---------------------------|------------------------------------------------|

|-12h14~~--12~~~--------12----14----|-12h14~~~-12~~~------------|
|-----------------12h14----14----14-|-------------------19^-----|
|-----------------------------------|---------------------------|
|-----------------------------------|---------------------------|
|-----------------------------------|---------------------------|
|-----------------------------------|---------------------------|

|-19---------19-----19-----|-7---------7----------7----------7----------|
|----19^-19^----19^----19\-|--10p7-10^---10p7-10^---10p7-10^---10p7-10^-|
|--------------------------|--------------------------------------------|
|--------------------------|--------------------------------------------|
|--------------------------|--------------------------------------------|
|--------------------------|--------------------------------------------|

|-10-----------10-----------12-----------12--------------15^~~~~~-|
|----13p10-13^----13p10-13^----15p12-15^----15p12-----------------|
|-------------------------------------------------14p12-----------|
|-----------------------------------------------------------------|
|-----------------------------------------------------------------|
|-----------------------------------------------------------------|

11.ROAD TO NOWHERE

Tune down 1/2 step
(let ring throughout)
--------2---------------------------3---------------------------------|
----3-----3-----------2---------------3-------------------------0-----|
------2-----2-----2-----2-------0-------0---------0---------------0---|
--0-----------------2-----2-------0-----------0-------------2---------|
---------------0--------------------------0-2---2-------------2-------|
------------------------------3-----------------------3-2-0-----------|


------------3--------------------------------------|
--------3-----3------------2-------3-------2-------|
----------0-----0------2-----2-------2-------2-----|
------------------0------2-----2-2-----2-------2---|
---------------------0-------------------0-------0-|
--0-2-3--------------------------------------------|
                     . . . . . . . . . . . . . . .
intro solo
        ^^     ^^                               ^^^^^
-----------------------P-------------------------------------------|
---H--P-----B------22-19---B---B---------------------------B-------|
-19-21-19--21(21)---------21--21(21)19-------H-19---19----21(21)19-|
-----------------------------------------19-21---------21----------|
-------------------------------------------------------------------|
-------------------------------------------------------------------|

    ^^^  ^^^  ^^^  ^^^                                            ^^^
----H----------------------------------------------------------------|
19-20---19--------------B---22-B--22-B------------------H--P---B-----|
-------------21---19---21-----21----21--------------19-21-19--21(21)-|
--------------------------------------------H-19-21------------------|
----------------------------------------19-21------------------------|
---------------------------------------------------------------------|

                                               ^^^  ^^^  ^^^ ^^^
--B----------P--12-----------------------------H------------------|
-20(20)--20-19------B---22-B---22-B--------19-20---19-------------|
-------------------21-----21-----21(21)19---------------21---19---|
------------------------------------------------------------------|
------------------------------------------------------------------|
------------------------------------------------------------------|

     tr^^^^^^^^^^^^^^^^^^^^^^^^^^^^^^^^^^^^^^^^^^^^^^^
-------------------------------------------------------|
-(14-15)14\-----(12-14)12\-----(10-12)10\-----(8-10)8--|
-(12-14)12\-----(11-12)11\-----(-9-11)-9\-----(7--9)7--|
-------------------------------------------------------|
-------------------------------------------------------|
-------------------------------------------------------|

   ^^^^^^   ^^^^^^  ^^^^^^  ^^^^  ^^^^^^^^^^^^^^^^^^^^^^^^
------------------------------||--------------------------|
--\7-------\5------\3------\2-||--3-----------------------|
--\6-------\4------\2------\0-.|--------------------------|
------------------------------.|--4-----------------------|
------------------------------||--------------------------|
------------------------------||--------------------------|
                 (return to start)   (fill)


------------------------B10-B10-B10-B10(10)\--------------|
------------------------9---9---9---9--(-9)\--------------|
-------------------------------------------------5-----5--|
-------------------------------------------------5-----5--|
----------------------------------------------3-----3--3--|
----------------------------------------------------------|
                                              .     .
searching for the key.                             the wreckage of

                                   P.H.^^^^
---------------------------------------------------------|
-------------------3-------------------------------------|
-------------------2--5--4---------------------5-----5---|
-------------------0--5--4--2------3(.5)-------5-----5---|
-------------------0--3--2--0-----------5---3-----3--3---|
-3-0-2-3--5-0-2-3--------------3-0-----------------------|
 . . . .  . . . .              . .          .     .
of my past keeps       me                      it just


-----------------------0---------------------------------------------|
--------------------3--3---3---------------------------------3-------|
--------------------2--2---2-----5-----5---------------------2--5--4-|
--------------------0--0---0-----5-----5---------------------0--5--4-|
-------------------------------3----3--3---------------------0--2--2-|
--3-0-2-3--5-0-2-3-------------------------3-0-2-3--5-0-2-3----------|
  . . . .  . . . .             .    .      . . . .  . . . .
leave me alone                         I still find it all   mystery


-------------3----------------------------------|
------3------3-------------------------------3--|
------0---2--0-------------------------------2--|
--2---0---2--0--------------5-5-5-4--4-4-2-2-0--|
--0-------0-------------------------------------|
------3------3----------------------------------| (next solo)
   be a  dream?  the road to nowhere
Comments