Ozzy Osbourne - Mama Im Coming Home Chords & Tabs

 

Mama Im Coming Home Chords & Tabs

Ozzy Osbourne Chords & Tabs

Version: 6 Type: Tab 0 ratings
1 star 2 stars 3 stars 4 stars 5 stars
comments

Mama Im Coming Home Tab

   
Eb-----------------------12b--12b--12b--------------------|
Bb-----------------------12b--12b--12b--10--12p10--10--9--|
Gb--------9------9--11b-----------------------------------|
Db--9h11-----11-------------------------------------------|
Ab--------------------------------------------------------|
Eb--------------------------------------------------------|

Eb-----------------------12b--12b--12b--------------------|
Bb-----------------------12b--12b--12b--10--12p10--10--9--|
Gb--------9------9--11b-----------------------------------|
Db--9h11-----11-------------------------------------------|
Ab--------------------------------------------------------|
Eb--------------------------------------------------------|
[ Tab from: http://www.guitartabs.cc/tabs/o/ozzy_osbourne/mama_im_coming_home_tab_ver_6.html ]
E-----------------------------|------------------------------------|
B-----------------------------|--19b--19b--17h19--17--21b--17--19--|
G--------9------9--11b--9h11--|--19b--19b--------------------------|
D--9h11-----11----------------|------------------------------------|
A-----------------------------|------------------------------------|
E-----------------------------|------------------------------------|

E--16--17--18--19---------------------|
B------------------19--17------17~~~--|
G--------------------------18---------|
D-------------------------------------|
A-------------------------------------|
E-------------------------------------|

h=hammer-on
p=pull-off
b=bend up 1 whole tone (notes on top of each other bend up in unison)
~=vibrato
Comments