Ozzy Osbourne - Mama Im Coming Home Chords & Tabs

 

Mama Im Coming Home Chords & Tabs

Ozzy Osbourne Chords & Tabs

Version: 1 Type: Tab 0 ratings
1 star 2 stars 3 stars 4 stars 5 stars
comments

Mama Im Coming Home Tab

!!! USA !!!It is about 97% correct, not to sure about the ending part but enjoy.

^=bend
~~=vibrato
h=hammer on
p=pull off
/=slide

e-----------------------------------------------
b-----------------------------------------------
g----------------------17^-17^-15-14-14h15p14/12
D--9-11-12-10-12^-14~~--------------------------
A-----------------------------------------------
E-----------------------------------------------
[ Tab from: http://www.guitartabs.cc/tabs/o/ozzy_osbourne/mama_im_coming_home_tab.html ]
e-----------------------------------------------
b-----------------------------------------------
g----------------------17^-17^-15-14-14h15p14/12
D--9-11-12-10-12^-14~~--------------------------
A-----------------------------------------------
E-----------------------------------------------

e----------------------------------------------------------
b-----------------------------------19--19--19^-17--19^-18~
g-----------------------------------17--17-----------------
D--9-11-12-10-12~~-15p14p13h14~~-15------------------------
A----------------------------------------------------------
E----------------------------------------------------------

e-------------22-----------
b--18-19-20-22---19-18-16~~
g--------------------------
D--------------------------
A--------------------------
E--------------------------
Comments