Ozzy Osbourne - Live And Loud Chords & Tabs

 

Live And Loud Chords & Tabs

Ozzy Osbourne Chords & Tabs

Version: 1 Type: Tab 0 ratings
1 star 2 stars 3 stars 4 stars 5 stars
comments

Live And Loud Tab

   
Band- Ozzy Osbourne
Album- Live & Loud(2 Discs)

1.INTRO

2.PARANOID

Intro
e|---------------------------------------|
B|---------------------------------------|
G|------------------------7-h9------7-h9-|
D|-9>----9>----9>----7-h9------7-h9------|
A|-7>----7>----7>------------------------|
E|---------------------------------------|


Verse
e|-----------------|-------------------|-----------------|------------|
B|-----------------|-------------------|-----------------|------------|
G|-----------------|-------------------|-----------------|-7-----9----|
D|-9-9-9-9-9-9-9-9-|-9-9-9-9-----------|-7-7-7-7-7-7-7-7-|-7-7-9-9----|
A|-7-7-7-7-7-7-7-7-|-7-7-7-7-----------|-5-5-5-5-5-5-5-5-|-5-5-7-7----|
E|-----------------|---------------|-----------------|------------|
 PM.........................|           |...............|  

Interlude
e|-----------|-----------------|-----------------|
B|-----------|-----------------|-----------------|
G|-----------|-----------------|-----------------|
D|-9>--5>-7>-|-9-9-9-9-9-9-9-9-|-9-9-9-9-9-9-9-9-|
A|-7>--3>-5>-|-7-7-7-7-7-7-7-7-|-7-7-7-7-7-7-7-7-|
E|-----------|-----------------------------------|
             PM.................................|

Chorus
e|------|------|
B|------|------|
G|------|------|
D|-9>---|-5>---|
A|-7>---|-3>---|
E|------|------|

Solo: this solo is very hard !!!
e|-------------------|-------------------|----------------------|
B|-------------------|-------------------|----------------------|
G|-12p9----9---------|-----9----9--------|----------------------|
D|------12-----------|-------12---12-9---|----------------------|
A|-------------------|-------------------|-10h12-10h12-107-7---|
E|-------------------|-------------------|----------------------|

e|------------------|------------------|---------------------------|
B|------------------|------------------|-----8-10-10b12r10p8-10b12-|
G|------------------|----------7h9-9---|-7-9-----------------------|
D|------------------|------7h9---------|---------------------------|
A|-10-7---7---------|-7h10-------------|---------------------------|
E|------------------|------------------|---------------------------|

e|-------------------|--------------------|-------------------|
B|-r10p8-10--8-------|--------------17-15-|-17----17----17-15-|
G|-------------9-9-9-|-7-9-9-9-9/16-------|-------------------|
D|-------------------|--------------------|-------------------|
A|-------------------|--------------------|-------------------|
E|-------------------|--------------------|-------------------|

e|-17b19-17b19-17b19r17p15-17p15----|-15p12----------------------------|
B|-------------------------------17-|-------15-15p12-------------------|
G|----------------------------------|----------------14-12-14-14p12----|
D|----------------------------------|-------------------------------14-|
A|----------------------------------|----------------------------------|
E|----------------------------------|----------------------------------|

e|--------------------------|-----------------------------------|
B|--------------------------|-----------------------------------|
G|-12----12-14b16r14-12-----|-14b16--12h14p12----12-------------|
D|----14--------------------|-----------------14----14----------|
A|--------------------------|--------------------------12h13h14-|
E|--------------------------|-----------------------------------|

e|-----------------------------|---------------------|-------------|
B|-----------------------------|---------------------|-------------|
G|-----------------------------|-----------12--------|-------------|
D|-12--------------------------|-12--12-14----14-12--|-14-12----14-|
A|-----14-12-14p12----12h13h14-|---------------------|-------------|
E|-----------------15----------|---------------------|-------------|

3.I DON'T WANT TO CHANGE THE WORLD

|-------|-----------------------------|----------------------------
|-------|-----------------------------|----------------------------
|-------|-----------------------------|---------------2--"Huh!"----
|-------|-0h2-----0h2-------------5/7-|-0h2-----2p0---2------------
|-x/17\-|-0---0-0-0---0-0-0-0-3p0-3/5-|-0---0-0-0-----0------------
|-------|-----------------------------|-------------3--------------

2nd time:
|-----------------------------|------------------------------------
|-----------------------------|------------------------------------
|-----------------------------|------------------------------------
|-0h2-----0h2-------------5/7-|-0h2-----2p0-----PH--PH-------------
|-0---0-0-0---0-0-0-0-3p0-3/5-|-0---0-0-0---0-0-5~~-3~~------------
|-----------------------------|------------------------------------

"I don't wanna change the world..."
|------------------------------------------------------------------
|----------3---3----------------------3-----3----------------------
|-2--------2---0----------------------0-----2-------------2--------
|-2--------0---0------------------0---0-----0-------------2--------
|-0-----------------------------------------0-----0-------0--------
|--------0-2---3------------------2---3--------------3-------------

|----------------------------------||2nd time:---------------------
|----------17----------------------||-------8----------------------
|-------16^--^16-14----------------||----10^-^10^-^10^-^10^~~~~~---
|-14-14-------------16-14----------||------------------------------
|-------------------------16-14----||------------------------------
|-------------------------------17-||------------------------------

"You know it ain't easy...."
|-----------------------------|------------------------------------
|-----------------------------|------------------------------------
|-----------------------------|---------------4---2----------------
|-----------------------------|---------------4---2----------------
|---4--4-4-----4----4---4-4-4-|----4--4-4-----2---0----------------
|-0-2--2-2-0-0-2--0-2---2-2-2-|-0--2--2-2-0-0----------------------

Guitar Solo:
|-----------------------------------------|-15-----------------------
|-----8-----8-------10^-^10-8---10---8~~~-|---15---------------------
|-8h9---8h9---8h9p8-----------9----9------|-----14^-^14-12----12-14^-
|-----------------------------------------|----------------14--------
|-----------------------------------------|--------------------------
|-----------------------------------------|--------------------------

--15-------17^~~~~(17)\-|------17------17------17-----(17)-----------|
------------------------|-17^-----17^-----17^-----17^-----17^-^17p15-|
-----14-12--------------|--------------------------------------------|
------------------------|--------------------------------------------|
------------------------|--------------------------------------------|
------------------------|--------------------------------------------|

|-17----16----15----14----15------------|
|----14----14----14----14---------PH----|
|----------------------------16^--14~~~-|
|---------------------------------------|
|---------------------------------------|
|---------------------------------------|

|-PM..........------PM..........-------|-----------------------------------------
|-------------PH~~~~------------PH~~~~-|-----------------------------------------
|-------------5-----------------7------|-------------------------------------14~-
|-5-6-7-5-6-7-------7-8-9-7-8-9--------|-7-8-9-7-8-9-121314121314141516141516----
|--------------------------------------|-----------------------------------------
|--------------------------------------|-----------------------------------------

|-------------------/=========\-------------------
|----------------T-/-----------\------------------
|-16^--^(16)p14-21^-(21)-p-4----(4)-2h4-2~~~~~~~~-
|-------------------------------------------------
|-------------------------------------------------
|-------------------------------------------------

|--------------------------------------|----------------------|
|----5-----5-----5----5--3-~~~-----(0)-|---7---7---7---7---5--|
|-7^----7^----7^---7^----5^-----x\-(0)-|-9^--9^--9^--9^--7^---|
|--------------------------------------|----------------------|
|--------------------------------------|----------------------|
|--------------------------------------|----------------------|

|-------|---------------------|--------------1215-171512------171512-
|-5--5--|---5---5---5---5---3~~~~~---------15-----------151215-------
|-7--5--|-7^--7^--7^--7^--5^--|-----x\-------------------------------
|-------|---------------------|--------------------------------------
|-------|---------------------|--------------------------------------
|-------|---------------------|---------(0)--------------------------

These are 20's, 21's and 22's...not 1's, 2's and 0's...

--------171512------171512----------201715------201715------2220---------
-151215-------151215------17-15/1717------201720------201720----22222022-
-------------------------------------------------------------------------
-------------------------------------------------------------------------
-------------------------------------------------------------------------
-------------------------------------------------------------------------

-222017----------|-------------------------------------------------
--------22-20-22-|-------------------------------------------------
-----------------|-------------------------------------------------
-----------------|-------------------------------------------------
-----------------|-------------------------------------------------
-----------------|-------------------------------------------------

"Don't tell me stories cause yesterays's glories..."
|-------0---------------------------------5---------------0--------
|-----------0--------3---5---3--------3-------3--------------0-----
|-----6-------6----------------0----------------0-------6------6---
|---7-----------7--5---5---------5--4---4---------4---7----------7-
|-0-------------------------------------------------0--------------
|------------------------------------------------------------------

4.DESIRE

|-----------------------------------------------------------
|-----------------------------------------------------------
|-----------------------------------------------------------
|-----------------------------------------------------------
|-4-4---4-4-4---4-4-4---4-4-4-------------------------------
|-2-2---2-2-2---2-2-2---2-2-2--and on and on...-------------

                                                  ||1st================||
|-----------------------------------------------------------------------
|--------------------------5--4----------------------------------------- 
|-2-----------4------------4--4---2-----------4----------------4^^(4)p2-
|-2-----------4-------------------2-----------4----------2--------------
|--------------------------------------------------------2--------------
|-----------------------------------------------------------------------

2nd=====================================||
|-----------------------------------------
|-----------------------17--17--17--17-\--
|-----------------------16^-16^-16^-16^\--
|-----------------------------------------
|-4--4----4--4--4--/-\--------------------
|-2-------2--2--2-------------------------

|---------------------------------------------------------------------
|---------5------x------------5------5-4-------------5----x-4---------
|---------4------x--4---------4------4-4-------------4----x-4---------
|-4-------2------x--4---------2------2-4------4------2----x-4------2--
|-4-----------------2-----2-2----2-2----------4-------------2----2-2--
|-2--2-2----------------------------------x-x-2--0-2-------------0-0--

|-----------------------------------------------------------
|---------5------x-----------5------5-4---------------------
|---------4------x--4--------4------4-4---------------------
|---------2------x--4--------2------2-4------4--------------
|-4-----------------2----2-2----2-2----------4--------------
|-2--0-2---------------------------------x-x-2--0-2-repeat as above...

"I always knew what i wanted to be..."
|--------------------------------------------------------------------
|--------------------------------5--5--------------------------------
|-PM...........................--4--4--------4--4--------------------
|--------------------------------2--2--------4--4--------2-----2-----
|-4-4-4-4-4-4-4-4-4-4-4-4-4-4-4--------------2--2-----2--2-----2--4--
|-2-2-2-2-2-2-2-2-2-2-2-2-2-2-2-----------------------0--0-----0--2--

"It drives them crazy....cause i wont be cool"
|-----------------------------------------------------------
|---------------5-------------------------------------------
|---------------4-----------------4-----------------2-------
|-2p0-----------2-----------------4-----------------2-------
|-2p0--4--4--4-----------4--4--4--2--------4--4--4--0-------
|------2--0--2-----------2--0--2-----------2--0--2----------

"It's the same old desire..."
|-----------------------------------------------------------
|-----------------------------------------------------------
|-4--4--4--4--4-------------2--------------------4~~~~~~--2-
|-4--4--4--4--4-------4-----0------2---2------x--4--------2-
|-2--2--2--2--2---4---4-----0------2---2------x-------------
|-----------------2---2--------------0----------------------

HALF TIME FEEL:
|----------------------------|------------------------------
|-----------------PH---------|-------------PM---------------
|------------------4~~~~~~~--|--------------4~~~~--2--------
|------------------4---------|--------------4------2--------
|-2-4------4-----------------|-2-4------4-------------------
|-0-2----0-2-----------------|-0-2----0-2-------------------

|------------------\--//-----|------------------------------
|-------------PH-4^\\//------|-------------PM---------------
|----------------4^-^^-------|--------------4~~~~--2--------
|----------------------------|--------------4------2--------
|-2-4------4-----------------|-2-4------4-------------------
|-0-2----0-2-----------------|-0-2----0-2-------------------end half time feel


Solo:
|-7-----------7----------7-----------7----------7----------------
|---10p7-10^----10p7-------10p7-10^----10p7-------10p7-----10/12-
|--------------------9^---------------------9^---------10^-------
|----------------------------------------------------------------
|----------------------------------------------------------------
|----------------------------------------------------------------

|-9----------9----------10-10-----12------12---14-------------------------
|---12p9-12^---12p9--------13^----15^-----15^--17^-17^17^17^17^17^17^-^17-
|-------------------11^---------------------------------------------------
|-------------------------------------------------------------------------
|-------------------------------------------------------------------------
|-------------------------------------------------------------------------

|-14--------19^\-|---------------------2-5-|-2h5p2---\--//--
|-----17~~-------|-----------------2-5-----|-------4^\\//---
|----------------|-------------2-4---------|-------4^-^^----
|----------------|---------2-4-------------|----------------
|----------------|-----2-4-----------------|----------------
|----------------|-2-5---------------------|----------------

|-------------------------|---21-----------21^--^21--21--20--19-|
|-21^-^21p19----19~~-21^--|------21^--19--x---------------------|
|------------20-----------|---------------x---------------------|
|-------------------------|-------------------------------------|
|-------------------------|-------------------------------------|
|-------------------------|-------------------------------------|

|-19^-19^-19^-19^-19p17-------|-----------------------|
|-----------------------19^-\-|----2-5p2----2-5p2-----|
|-----------------------------|-4^-------4^-------4^--|
|-----------------------------|-----------------------|
|-----------------------------|-----------------------|
|-----------------------------|-----------------------|

|------------------------|----------------------------------|
|----7-10p7----7-10p7----|------9-12p9------9-12p9----------|
|-9^--------9^--------9^-|-11^---------11^---------11^~~----|
|------------------------|----------------------------------|
|------------------------|----------------------------------|
|------------------------|----------------------------------|

|---------------------------14-|-171614--14-191714--14-171614--14-191714--14-|
|------14-17p14--17^--\-/17----|-------17---------17---------17---------17---|
|-16^--------------------------|---------------------------------------------|
|------------------------------|---------------------------------------------|
|------------------------------|---------------------------------------------|
|------------------------------|---------------------------------------------|

|-171614---14-191714---14-19^~~~--\-|
|-------17----------17--------------|
|-----------------------------------|
|-----------------------------------|
|-----------------------------------|
|-----------------------------------|
Palm Mute:
|---------------------------------|---------------------------------|
|---------------------------------|---------------------------------|
|-4-2-----4-2-4-2-----4-2-4-2-----|-4-2-4-2-----4-2-4-2-----4-2-----|
|-----4-2---------4-2---------4-2-|---------4-2---------4-2-----4-2-|
|---------------------------------|---------------------------------|
|---------------------------------|---------------------------------|
w/ slide:
|-----------------------------------------------------------
|----------5-/(6)/-7---7-/-9--9-/-12--14/----17^------------
|--3-/-4-/-5-/(6)/-7---7-/-9--9-/-12--14/-------------------
|--3-/-4-/-5-/(6)/-7---7-/-9--9-/-12------------------------
|-----------------------------------------------------------
|-----------------------------------------------------------

5.MR.CROWLEY

(Synth. arr. for gtr.)
 Dm                Am                  F               C
|-----------------|-------------------|---------------|---------------------|
|-----------------|-------------------|---------------|---------------------|
|-----------------|-2------------2--0-|-----0---2---4-|-5---0------5---4----|
|--0---2---3---5--|------2------------|-3-------------|---------------------|
|-----------------|----------0--------|---------------|---------3-----------|
|-----------------|-------------------|---------------|---------------------|

 Am              Em          Am A#  F    G  F  E  F  A
|---------------|-----------|-5--6--1-|--3--1--0--1-|-----------------------|
|-------------3-|-5---------|-5--6--1-|--3--1--0--1-|-----------------------|
|-2---4---5-----|-----4-----|-5--7--2-|--0--2--1--2-|-2---------------------|
|---------------|---------2-|-7--8--3-|--0--3--2--3-|----------3v(2)~-------|
|---------------|-----------|-7--8----|--------2----|-----------------------|
|---------------|-----------|-5--6--1-|--3--1--0--1-|-----------------------|

Verse 1

|-----------|----------|---------------------|------------|----------|-------|
|-----------|----------|---------------------|------------|----------|-------|
|-7---------|-7--------|-3--X-3~-------------|-3--X-3~----|-7--------|-7-----|
|-7---------|-7--------|-3--X-3~-------------|-3--X-3~----|-7--------|-7-----|
|-5---0-----|-5--------|-1--X-1~-1-1-3-1-0-0-|-1--X-1~-1/-|-5---0----|-5-----|
|--------1--|-----18\--|---------------------|------------|--------1-|----22\|

                                                  [- Fill 1 --]
|---------------------|-----------|---------------|-----------|--------------|
|---------------------|-----------|---------------|------5----|--------------|
|-3--X-3~-------------|-3--X-3~-3-|-5--3--5--3--5-|------5--7-|-7--5--7~-----|
|-3--X-3~-------------|-3--X-3~-3-|-5--3--5--3--5-|------5--7-|-7--5--7~-----|
|-1--X-1~-1-1-3-1-0-0-|-1--X-1~-1-|-3--3--3-----3-|-5h7--5--5-|-5--5--5~-----|
|---------------------|-----------|---------------|-----------|--------------|

[-- Fill 2 ----------]
|--------------------|-------------|------------|-------------|--------------|
|-----------X--------|-------------|------------|-------------|--------------|
|-----5h7p5-7^(9)-5~-|-5--X--5---5-|-----5--X-5-|-3--3--3-----|--------------|
|-----5h7p5----------|-5--X--5---5-|-----5--X-5-|-3--3--3-----|--------------|
|-5h7----------------|-3--X--3-0-3-|-0-1-3--X-3-|-1--1--1-1p0-|--------------|
|--------------------|-------------|------------|-------------|-17\----------|

Verse 2

Repeat VERSE 1, but replace FILL 1 with FILL 3 and FILL 2 with FILL 4:

[-- Fill 3 -------] [-- Fill 4 ------------------]
|-----------------| |----------------------------|
|-----------------| |-3h4p3--3-------------------|
|-----------------| |------5--5-3h5p3\2--2-------|
|---------------7-| |------------------5--5-3-2--|
|-5h7p5h7p5h7p5-5-| |--------------------------5-|
|-----------------| |----------------------------|

Solo

|----------10----------------10----------------10----------------10-------10--|
|--------10---13p10--------10---13p10--------10---13p10--------10---13p10-----|
|-12^(14)-----------12^(14)-----------12^(14)-----------12^(14)---------------|
|-----------------------------------------------------------------------------|
|-----------------------------------------------------------------------------|
|-----------------------------------------------------------------------------|

|-13p10----10-----------------------------------------------------------------|
|-------13----13-10-13p10-----------------------------------------------------|
|-------------------------12-10-12p10----10--------------10-10-12-------------|
|-------------------------------------12---12-10-12p10h12---------------------|
|-----------------------------------------------------------------------------|
|-----------------------------------------------------------------------------|

|--------------------------10-13p12-10-15p13p12-16p15p13-18p16p15/20-20p18p17-|
|------------13-13-13p10-13---------------------------------------------------|
|-12p10-12/14-----------------------------------------------------------------|
|-----------------------------------------------------------------------------|
|-----------------------------------------------------------------------------|
|-----------------------------------------------------------------------------|

|-20^(22)---20^(22)v(18)---20~-----20p17h18-20p17h18p17--|
|--------------------------------------------------------|
|--------------------------------------------------------|
|--------------------------------------------------------|
|--------------------------------------------------------|
|--------------------------------------------------------|

|-17h18p17--17------17h18p17--17-------------------------------------------|
|---------20--18-20---------20--20p17h18p17---17---------------------------|
|-------------------------------------------19--19p17---17-----------------|
|----------------------------------------------------20---20p19p17---17----|
|-----------------------------------------------------------------20-------|
|--------------------------------------------------------------------------|

|-------------------------20^(22)--|
|----------------------------------|
|---------------------X------------|
|----------17~--------X------------|
|-19~----------19~----X------------|
|----------------------------------|

|-20p17h20p17h18p17-18p17----17-------------------------|
|-------------------------20---20p17-18p17h18p17h18p17--|
|-------------------------------------------------------|
|-------------------------------------------------------|
|-------------------------------------------------------|
|-------------------------------------------------------|

|------------20----20~\--|
|-20^(22)----------20~\--|
|------------------------|
|------------------------|
|------------------------|
|------------------------|

|-13p10--10-----13p10--10-----13p10-10-10-----13p10-10-10-------|
|------13--13p10-----13--13p10-----------13-10-----------13p10--|
|---------------------------------------------------------------|
|---------------------------------------------------------------|
|---------------------------------------------------------------|
|---------------------------------------------------------------|

|-13p10--10-----13-10--10-----13p10--10-----13p10--10-------|
|------13--13p10-----13--13p10-----13--13p10-----13--13p10--|
|-----------------------------------------------------------|
|-----------------------------------------------------------|
|-----------------------------------------------------------|
|-----------------------------------------------------------|

|-13p10--10------------------------------------------5--|
|------13--13p10-11p10--10-----------------------5h6----|
|---------------------12--12p9-10-9\7-9-7\5-7p5---------|
|----------------------------------------------7--------|
|-------------------------------------------------------|
|-------------------------------------------------------|

|---------------8-----------|-------------------------------|
|-8^(9)^(10)~~~~~~~~~v(9)---|-6------------6p5--------------|
|---------------------------|---7~--7~--7p5---7-5-----------|
|---------------------------|---------------------8p7p5-----|
|---------------------------|---------------------------8---|
|---------------------------|-------------------------------|

|---------------------------|-------------------------------|--------|
|---------------------------|-------------------------------|--------|
|---------------------------|-------------------------------|--------|
|-5-----------5-------------|-------------------------------|--------|
|---8p7p5-7h8---8--7~--5~---|-4~---5~---7~---12h13p12h13p12-|-20/0---|
|---------------------------|-------------------------------|--------|

Verse 3

Repeat VERSE 2, but replace FILL 4 with FILL 5:

[-- Fill 5 ----------------------------------]
|----------10--------------------------------|
|-13^(15)~---13-11-10h12p10--10--------------|
|--------------------------13--13p10h13p10---|
|-----------------------------------------12-|
|--------------------------------------------|
|--------------------------------------------|

Interlude

|--1--------1p0-----|-----5--3----|-------------------|---------------|
|:-3----3-------3p1-|-----6--5--5-|-------------------|----8--6-------|
|--2--2---2---------|-3-----------|-5----5h7-9p7------|----------7----|
|--0----------------|-3-----------|-5--5---------10p8-|-7-----------7-|
|:------------------|-------------|-------------------|---------------|
|-------------------|-------------|-------------------|---------------|
                                            [--- 1 ---][--- 2 ---]
|-----------------|------------|------------|---------|-------0--|
|-3---------------|----6p5h6-5-|-2--3--5--6-|-5--3--2~|-5--3--2-:|
|-3---3h5-7-5-3-2-|-0--------0-|------------|---------|-------2--|
|-3-3-------------|------------|------------|---------|-------2--|
|-----------------|------------|------------|---------|-------0-:|
|-----------------|------------|------------|---------|----------|

|-17p13-------------------18p13----------------------------
|-------15-(repeat 4 X)--------15--(repeat 4x)-------------
|----------------------------------------------------------
|----------------------------------------------------------
|----------------------------------------------------------
|----------------------------------------------------------

|-15p12------------------17p13-----------------------------
|-------13-(repeat 4x)---------13-(repeat 4x)--------------
|----------------------------------------------------------
|----------------------------------------------------------
|----------------------------------------------------------
|----------------------------------------------------------

|----------------------------------------------------------
|-15h16p15h16-16/18\16/18-18---16---15---16----------------
|-15h17p15h17-17/19\17/19-19---17---15---17----------------
|----------------------------------------------------------
|----------------------------------------------------------
|----------------------------------------------------------

|-15---12---------12----9----10----12----13---12-----------
|-/-----/----11----/----/-----/-----/-----/----------------
|-/-----/-----/----/----/-----/-----/-----/----------------
|-/-----/-----/----/----/-----/-----/-----/----------------
|-------------/--------------------------------------------
|----------------------------------------------------------

|10h12p10h12p10h12-12~~~-9-10-9-10-9-10----------------------------------------
|--------------------------------------10-11-10-11-10-11-----------------------
|----------------------------------------------------9-10-9-10-9-10-6-7-6-7-6-7
|------------------------------------------------------------------------------
|------------------------------------------------------------------------------
|------------------------------------------------------------------------------

|---------9h10-12-10-12^~~~~~-----5h6p5--5-----------------------
|-----9h10-----------------------------8---8-6p5-6p5-7-5---------
|-9h10---------------------------------------------------8p7-5---
|--------------------------------------------------------------8-
|----------------------------------------------------------------
|----------------------------------------------------------------

|----------------------------------------------------------5-6-8-6-5---------
|----------------------------------------------------5-6-8-----------8-------
|-----------------------------------------2-3-5-3-5-7------------------------
|-5---------5-7p5-------------------2-3-5------------------------------------
|---8p7p5-8-------8-\----------1-3-5-----------------------------------------
|-------------------------1-3-5----------------------------------------------

|-5-------------5------------------------------------------
|---8-6p5-6p5-8---8-----6--5-----2-3-2-3-2-3/3-5-3-5-3-5/6-5-6-5-6/8-6-8-6-8/
|----------------------------------------------------------
|----------------------------------------------------------
|----------------------------------------------------------
|----------------------------------------------------------

-----------------------------------------------------------
/10-8-10-8-10/11-10-11-10-11-10-11/13-11-13-11-13-11-15^---
-----------------------------------------------------------
-----------------------------------------------------------
-----------------------------------------------------------
-----------------------------------------------------------

|-------------------------------------17-18-17--17-------------17---------20^
|-17h18----------17-18-17-18-------18---------20--20-18-17-18-20--20-18-17---
|-------19~~~~---------------19~~~~----------------------------------------
|---------------------------------------------------------------------------
|---------------------------------------------------------------------------
|---------------------------------------------------------------------------

|-18--17-20-18-17-20--18152018141916\15131814131613121512\11101411-9--
|---------------------------------------------------------------------
|---------------------------------------------------------------------
|---------------------------------------------------------------------
|---------------------------------------------------------------------
|---------------------------------------------------------------------

|-13-10\5h6p5---5------------------------------------------
|-------------8---8-6-5---5--------------------------------
|-----------------------7---7-5---5------------------------
|-------------------------------8---8-7-8-7---------5------
|-------------------------------------------7/8-7h8--------
|----------------------------------------------------------

|----------------------------------------------------------
|----------------------------------------------------------
|----------------------------------------------------------
|-7--5------------------------------------3----------------
|-------8--7---5--3--------3/5------5-3-5---5-3-5----------
|--------------------5-3-1---------------------------------

|----------------------------------------------------------
|-------------------------------------6p5------------------
|---------------------------------5h7----7p5-7~~~~---------
|-6-3-5-3----------------3--5-5/7--------------------------
|---------5-3---5--3--5------------------------------------
|----------------------------------------------------------

|-5h6p5---5------------------------
|-------8---8-6-5-6-5--------------
|---------------------7-5-7-5------
|-----------------------------8-7--
|----------------------------------
|----------------------------------

6.I DON'T KNOW

|----------------------------------------------------- 
|----------------------------------------------------- 
|-------2---------------4----------------5------------ 
|-------2---------------4----------------5------------ 
|-------0--0-000-000000-0--00000-0000000-0-000000000-- 
|-17\------------------------------------------------- 

|-----3-------------------------||-------------------------------- 
|-----3---------3---------------||---1p0h1p0h1p0------------------ 
|-7\--0---------2---------------||--------------2p0h2p0----------- 
|-7\--0---------0---------------||---------------------2p0h2p0---- 
|-------------------------------||----------------------------3-0- 
|-----3--------------0---3^-----||-------------------------------- 

"Everyone goes through changes..." 
|----------------3-------3---3------------------3------3---3------- 
|-------------6----------3---3---------------6---------3---3------- 
|----5-----5-------------0---0------5-----5------------0---0------- 
|-3-----3----------------0---0---3-----3---------------0---0------- 
|------------------------------------------------------------------ 
|-------------------5^---3---3---------------------5^--3---3------- 
                                  "Dont ask me..." 
|---------------------------------|-------------------------------- 
|---------6-6-----6-6-8-8-6-6-----|-------------------------------- 
|-----5-5-----5-5-------------5-0-|-10----9----7----5-------------- 
|-3-3-----------------------------|-10----9----7----5--5----------- 
|---------------------------------|--8----7----5----3--5--back to first riff 
|---------------------------------|--------------------3----------- 
Fill: 
|-this is tapping----------------------------------------- 
|-12p5p0-12p5p0-12p5p0-12p5p0-12p4p0-12p4p0-12p2p0-12p2p0- 
|--------------------------------------------------------- 
|--------------------------------------------------------- 
|--------------------------------------------------------- 
|--------------------------------------------------------- 
  
|------------------------------------------------------------------ 
|------------------------------------------------------------------ 
|-----7^-^-----0-----5----------7^-^-----0-----0---5--------------- 
|-----7--------0-----5--5-------7--------0-----0---5--------------- 
|-0-0--------0-------3--5---0-0--------0-----------3--------------- 
|-----------------------3-----------------------------5--3--2--01~~ 

Bridge: 
harm.===============================|| 
|---------------|-------------12--|----------7---------------------| 
|-7-------------|---------7-------|-12-------8--10----8------------| 
|-7-------------|-5---------------|-12-------7---------------------| 
|-7-------------|-----------------|-12-----------------------------| 
|---------------|-----------------|--------------------------------| 
|---------------|-----------------|--------------------------------| 
|               |                 |                                | 
|-2-------------|-----------------|--------------------------------| 
|-3------3h5/7--|-8-------7-------|-8-----------------8------------| 
|-2------2-/-7--|-9-------7----9--|-7--7-----------7---------------| 
|-0-------------|-----------------|-5-----5-----5------------------| 
|---------------|-----------------|--------------------------------| 
|---------------|-----------------|-7-----------7------------------| 

|------------------------------|----------------|------------------| 
|-10---------------------------|-7-------7h8/10-|-5-----8----10----| 
|---12p10-10-------------------|-7-------7h9/11-|-5----------------| 
|-----------12p10-10-----------|----------------|-5----------------| 
|-------------------12p10------|-9--------------|-------7----------| 
|------------------------12\10-|----------------|------------------| 
|                              |                |                  | 
|------------------------------|----------------|------------------| 
|------------------------------|----------------|-------------7----| 
|---------5---7-------5--------|---------7h9p7--|-9----------------| 
|------7-------------------7---|---------7------|-5----------------| 
|-8----------------------------|-5--------------|------------------| 
|------------------------------|----------------|------------------| 

|---------7-----------|---------------------------------|---------- 
|-7----------10----8--|---------------------------------|---------- 
|-9-------------------|-14p12p10-10---------------------|---------- 
|---------------------|-10---------12p10-10h12p10-------|---------- 
|---------------------|---------------------------12\10-|---9------ 
|---------------------|---------------------------------|---------- 
|                     |                                 | 
|------------------3--|---------------------------------|---------- 
|-3-------------3-----|-------------3----------1--------|---------- 
|-0-------------------|---------2-----------------2-----|---------- 
|---------------------|---------------------------------|--(0)----- 
|-2-------------------|-----3---------------------------|---------- 
|---------------------|-1-------------------------------|---------- 

Solo: 
|-----------------------15----------15----------------------------- 
|-18^---18^~~~~~~~~~~~----18-15---15--18-15---15------------------- 
|------------------------------17^----------18--18-15-17-15-------- 
|-----------------------------------------------------------17-15-- 
|------------------------------------------------------------------ 
|------------------------------------------------------------------ 

|------------17^----------^^---17p15-17p15h17p15h17p15\13~~~------- 
|--------------------------------------------------------------13^- 
|-17^---15--------------------------------------------------------- 
|------------------------------------------------------------------ 
|------------------------------------------------------------------ 
|------------------------------------------------------------------ 

hold bend on 13, bend up 1/2 step each bar while playing this: 
|---------------------------------------------------------------------- 
|-16p13h16p13h16p13---------------------------------------------------- 
|---------------------------------------------------------------------- 
|---------------------%-----%-----%-----%------%-----12\0h3p0h3p0h3p0-- 
|---------------------------------------------------[bend behind nut]-- 
|---------------------------------------------------------------------- 

|-------------------------------------------------------------------------- 
|-----------------------------------------------------------------------18- 
|-----------------------------------------------------15-15-17-17-19-19---- 
|-(0)----------------------------------------15-15--17--------------------- 
|----3/--/15^~~~~---15^~~~~~---13-13-15-15/17-----17----------------------- 
|----------------------------15-------------------------------------------- 

|----------18-21p20p18~~~---------18----------------^-------------- 
|-18-20-20----------------20-18-20--20-18-20^---20^----^^---------- 
|---------------------------------------------------------x-19^---- 
|------------------------------------------------------------------ 
|------------------------------------------------------------------ 
|------------------------------------------------------------------ 

|------------------------------------------------------------------ 
|-------------------------11-10-----11-10-----10-9-----10-9-------- 
|-19^----19^~~~~~~--12-12------12-10-----12-10----11-9------11-9--- 
|------------------------------------------------------------------ 
|------------------------------------------------------------------ 
|------------------------------------------------------------------ 

|-------------------------------------3---------------------------- 
|-9-8-----8-7-----7-6-----6-5-------3---6p3--3--------------------- 
|-----10-8----9-7-----8-6-----7-5-5^-------6---6p5p3--5-3---------- 
|---------------------------------------------------5-------------- 
|------------------------------------------------------------------ 
|------------------------------------------------------------------ 

|-------15--------------------------------------------------------- 
|-----15--18-15---15---------17^^^~~~~~~--------------------------- 
|-5/17---------18----17-15-x--------------------------------------- 
|-----------------------------------------end solo----------------- 
|------------------------------------------------------------------ 
|------------------------------------------------------------------ 
Thing at end: 
|-20p17-20p17--17-------------------------------------------------- 
|------------20--20p17-20p17--17----------------------------------- 
|---------------------------19--19p17-19p17--17-------------------- 
|------------------------------------------19--19p17--------------- 
|---------------------------------------------------19p17---------- 
|--------------------------------------------------------17\------- 

7.ROAD TO NOWHERE

(let ring throughout)
--------2---------------------------3---------------------------------
----3-----3-----------2---------------3-------------------------0-----
------2-----2-----2-----2-------0-------0---------0---------------0---
--0-----------------2-----2-------0-----------0-------------2---------
---------------0--------------------------0-2---2-------------2-------
------------------------------3-----------------------3-2-0-----------


------------3--------------------------------------
--------3-----3------------2-------3-------2-------
----------0-----0------2-----2-------2-------2-----
------------------0------2-----2-2-----2-------2---
---------------------0-------------------0-------0-
--0-2-3--------------------------------------------
                     . . . . . . . . . . . . . . .  
intro solo
        ^^     ^^                               ^^^^^
-----------------------P-------------------------------------------
---H--P-----B------22-19---B---B---------------------------B-------
-19-21-19--21(21)---------21--21(21)19-------H-19---19----21(21)19-
-----------------------------------------19-21---------21----------
-------------------------------------------------------------------
-------------------------------------------------------------------

    ^^^  ^^^  ^^^  ^^^                                            ^^^
----H----------------------------------------------------------------
19-20---19--------------B---22-B--22-B------------------H--P---B-----
-------------21---19---21-----21----21--------------19-21-19--21(21)-
--------------------------------------------H-19-21------------------
----------------------------------------19-21------------------------
---------------------------------------------------------------------

                                               ^^^  ^^^  ^^^ ^^^
--B----------P--12-----------------------------H------------------
-20(20)--20-19------B---22-B---22-B--------19-20---19-------------
-------------------21-----21-----21(21)19---------------21---19---
------------------------------------------------------------------
------------------------------------------------------------------
------------------------------------------------------------------

     tr^^^^^^^^^^^^^^^^^^^^^^^^^^^^^^^^^^^^^^^^^^^^^^^
-------------------------------------------------------
-(14-15)14\-----(12-14)12\-----(10-12)10\-----(8-10)8--
-(12-14)12\-----(11-12)11\-----(-9-11)-9\-----(7--9)7--
-------------------------------------------------------
-------------------------------------------------------
-------------------------------------------------------

   ^^^^^^   ^^^^^^  ^^^^^^  ^^^^  ^^^^^^^^^^^^^^^^^^^^^^^^
------------------------------||--------------------------
--\7-------\5------\3------\2-||--3-----------------------
--\6-------\4------\2------\0-.|--------------------------
------------------------------.|--4-----------------------
------------------------------||--------------------------
------------------------------||--------------------------
                 (return to start)   (fill)


------------------------B10-B10-B10-B10(10)\--------------
------------------------9---9---9---9--(-9)\--------------
-------------------------------------------------5-----5--
-------------------------------------------------5-----5--
----------------------------------------------3-----3--3--
----------------------------------------------------------
                                              .     .  
searching for the key.                             the wreckage of 

                                   P.H.^^^^
---------------------------------------------------------
-------------------3-------------------------------------
-------------------2--5--4---------------------5-----5---
-------------------0--5--4--2------3(.5)-------5-----5---
-------------------0--3--2--0-----------5---3-----3--3---
-3-0-2-3--5-0-2-3--------------3-0-----------------------
 . . . .  . . . .              . .          .     .
of my past keeps       me                      it just


-----------------------0---------------------------------------------
--------------------3--3---3---------------------------------3-------
--------------------2--2---2-----5-----5---------------------2--5--4-
--------------------0--0---0-----5-----5---------------------0--5--4-
-------------------------------3----3--3---------------------0--2--2-
--3-0-2-3--5-0-2-3-------------------------3-0-2-3--5-0-2-3----------
  . . . .  . . . .             .    .      . . . .  . . . .
leave me alone                         I still find it all   mystery


-------------3----------------------------------
------3------3-------------------------------3--
------0---2--0-------------------------------2--
--2---0---2--0--------------5-5-5-4--4-4-2-2-0--
--0-------0-------------------------------------
------3------3---------------------------------- (next solo)
   be a  dream?  the road to nowhere

8.FLYING HIGH AGAIN

|--------------|------------------|----------x--|------------------|
|--------------|----------3---3---|----------3--|------------------|
|-0h2----2-2---|-----2----2---0---|----------2--|--1-1--h5-5p0-----|
|-0h2-x--2-2---|-----2----0---0---|----------0--|--0-0--h5-5p0-----|
|-0h0-0--0-0---|---x-0----0-------|----2--3-----|--x-x-------------|
|--------------|---x----------3---|-------------|------------------|

|--------------|----------------|------------x--|------------------|
|--------------|-------------3--|----------3-x--|-1p0-1p0----------|
|-2--------2px-|----2--------0--|----------2-x--|--------2p0-------|
|-2--------2px-|----2--------0--|----------0-x--|-----------2p0----|repeat for different
|-0--------0---|----0-----------|----2--3-------|--------------3^--|variations
|--------3-----|-------0--2--3--|---------------|------------------|

"mamas gonna worry..."
|-----------------|-----------------|-------------|-----------------|
|-----------------|-----------------|--8----10^---|-----------------|
|-2-------2-------|-x-------2---2---|--7-----7----|-5---------------|
|-2-------2-x-x-x-|-x-x-x-x-2---2---|--5----(7)---|-5---5-----------|
|-0---0-0-0-0-0-0-|-0-0-0-0-0-0-0-0-|-------------|-------7-6-5-3h5-|
|-----------------|-----------------|-------------|-----------------|
"If you could see inside of me..."
|-------------|---------------------|----------------0--0-|--------|
|-------------|---------------------|-3-----3-3-----------|-3-3----|
|---2-----4-6-|-(6)~~~-4-2-----4--x-|-2-----2-2-----------|-2-2----|
|---4-----6-7-|-(7)----6-4-----6--x-|-0-----------0-------|-0-0----|
|-0-----------|---------------------|---------------------|--------|
|-------------|---------------------|---------------------|--------|
"You'd see youd see what i had seen..."
|-0-4-----|-5~~~~~~--x-x-7--9--|-(9)~~-7--5-----7--5-|---------------------------
|-0-5-----|-7--------x-x-9-10--|(10)---9--7-----9--7-|---------------------------
|---------|--------------------|---------------------|---harmonics---------------
|---------|--------------------|---------------------|---------------------------
|---------|--------------------|---------------------|-7-7-7-7-7-7-7-7-7-7-7-7-7-
|---------|--------------------|---------------------|---------------------------

SOLO:
|14---------14--------14--------14---------|17-16-14-------------------------|
|--17p14------17p14-----17p14-----17p14----|--------17-15p14-----------------|
|-------16^--------16^-------16^-------16^-|----------------17-16p14---------|
|------------------------------------------|------------------------16-14----|
|------------------------------------------|-----------------------------16--|
|------------------------------------------|---------------------------------|

|----------------------------------------------------14h15-|
|----------------------------------------------15h17-------|
|-----------------------------------14p12-14/16------------|
|---------------------14-16-14-16h17-----------------------|
|-15p14-15h16-17p16-17-------------------------------------|
|----------------------------------------------------------|

|-14~~~~~~~~-h15p14----------------------|
|------------------17~~~~~~(x)\----------|
|------------------------------\---------|
|-------------------------------\--------|
|--------------------------------\-------|
|---------------------------------\12-12-|

|---------------------------------------|-------------------------x------------|
|---------------------------------------|151415141514145141514----x-----10h14-x|
|------------------------14h16p14h16p14-|---------------------16~~-------------|
|---------------14--16-14---------------|--------------------------------------|
|------12--16-14--16--------------------|--------------------------------------|
|-14-12--14-----------------------------|--------------------------------------|

|-101410------101510------101410------10/17-|171917191719171917-17\/9h12p9h12---|
|-------101410------101410------101410------|-----------------------------------|
|-------------------------------------------|-----------------------------------|
|-------------------------------------------|-----------------------------------|
|-------------------------------------------|-----------------------------------|
|-------------------------------------------|-----------------------------------|
   T     T       T             T    T       T
|-17p12-1712912-1712912912912-1712-1712912-1712912-|
|--------------------------------------------------|
|--------------------------------------------------|
|--------------------------------------------------|
|--------------------------------------------------|
|--------------------------------------------------|
   T    T        T    T        T        T
|-----------------------------------------------|
|-1813-18131013-1813-18131013-18131013-18131013-|
|-----------------------------------------------|
|-----------------------------------------------|
|-----------------------------------------------|
|-----------------------------------------------|
   T    T        T    T        T        T
|-----------------------------------------------|
|-----------------------------------------------|
|-1914-19141114-1914-19141114-19141114-191411-x-|
|-----------------------------------------------|
|-----------------------------------------------|
|-----------------------------------------------|
   T     T        T     T        T
|---------------------------------------xh4h7p4-|
|-----------------------------------------------|
|-----------------------------------------------|
|-20p15-20151215-20p15-20151215-20p15-\---------|
|-----------------------------------------------|
|-----------------------------------------------|
   T    T     T  T     T   T     T   T     T    T     T     T    T     T
|-12p7-12747-127-xp47-127-12747-127-1247-|-----------------------------------|
|----------------------------------------|13p8-13858-138585-138-13858-13858x-|
|----------------------------------------|-----------------------------------|
|----------------------------------------|-----------------------------------|
|----------------------------------------|-----------------------------------|
|----------------------------------------|-----------------------------------|
   T    T        T   T        T       T
|-----------------------------------------------|
|-----------------------------------------------|
|-14p9-14p9p6h9-14p9-xp9p6h9-1496969-14p9p6h9p6-|
|-----------------------------------------------|
|-----------------------------------------------|
|-----------------------------------------------|

|-----------------------------------------------|
|-----------------------------------------------|
|-----------------------------------------------|
|-15p10-15p10p7h10-15p10-15p10p7h10-15p10p7-----|
|-------------------------------------------8-\-|
|-----------------------------------------------|end solo
                    "Flying high again...."
|-------------------|-----------------|---------------------|
|-------------------|-----------------|---------------------|
|-2--2----2--5^---7-|~~~-5h7--0---5\4-|-2-2-2---2---5---7---|
|-2--2----2--5^---7-|----5----0---5\4-|-2-2-2---2---5---7---|
|-0-------0---------|-----------------|-0-0-----0-------5---|
|----3h4^-----------|-----------------|-----3h4-------------|


This is at the end:
|----------------|-15/17--17\15------
|----------------|-15/17--17\15------
|-2------2--5-7--|-12/14--14\12------
|-2------2--5-7--|-12/14--14\12------
|-0------0-------|-------------------
|----3-4---------|-------------------

9.GUITAR SOLO

Don't Know

10.SUICIDE SOLUTION

|------------|-------------------------------|-----------------------------|
|------------|-------------------------------|-----------------------------|
|------------|-2--------5\----0--2-----------|-5\---0--2-------------------|
|------------|-2--------5\----0--2-----------|-5\---0--2-------------------|
|------------|-0--0--0--------------0--0-----|-0---------------------------|
|--x---17\---|----x--x--------------x--x-----|----------------3bf----------|


|-------------------------------|------------------------------------------|
|-------------------------------|------------------------------------------|
|-2--------5\----0--2-----------|-5\---0--2------5w/bar--------------------|
|-2--------5\----0--2-----------|-5\---0--2--------------------------------|
|-0--0--0--------------0--0-----|-0----------------------------------------|
|----x--x--------------x--x-----|------------------------------------------|

Wine is fine, but whiskey's..........

Verse
|---------------------------------|-----------------------------------------|
|---------------------------------|-----------------------------------------|
|-2---------5\-----0---2----------|-5\----0----2----------------------------|
|-2---------5\-----0---2----------|-5\----0----2------------2p0-------------|
|-0--0--0-------------------0--0--|-0----------------0-----------3----------|
|----x--x-------------------------|-----------------------------------------|


Suicide is slow with ......

|--------------------------------|----------------------|-------------------|
|--------------------------------|----------------------|-------------------|
|-2--------5\----0--2------------|-5\---0--2------------|-2-------5\--0-2---|
|-2--------5\----0--2------------|-5\---0--2--5-2p1p0---|-2-------5\--0-2---|
|-0--0--0----------------0---0---|--------------------3-|-0--0--0--------0-0|
|--------------------------------|----------------------|-------------------|


your sorrows          then it flood......
|--------------------|---------------------------|-------------------------|
|--------------------|---------------------------|-------------------------|
|-5\----0--2---------|-2--------5\---0--2--------|-9--7--5--0--------------|
|-5\----0--2---------|-2--------5\---0--2--------|-9--7--5--0--------------|
|--------------------|-0--0--0-------------0--0--|-7--5--3-----------------|
|--------------3bf~--|---------------------------|----------3--------------|


                               away tomorrow

|--------------------|------------------------|----------------------------|
|--------------------|------------------------|----------------------------|
|-------5-----5--7~--|--0----------2----5*----|-----------5--------5--7~---|
|-------5-----5--7~--|--0----------2----------|-----------5--------5--7~---|
|-0--0-----0---------|-------------0----------|-0---0--0-----0--0----------|
|--------------------|------3bf---------------|----------------------------|


                        Evil thoughts and evil....

|----------------------|--------------------------|------------------------|
|----------------------|--------------------------|------------------------|
|-0--------2-----------|-2--------5\--0--2--------|-5\---0--2--------------|
|-0--------2-----------|-2--------5\--0--2--------|-5\---0--2-----2p0------|
|----------0-----------|-0--0--0------------0--0--|------------0--------3--|
|-----3bf---------17\--|--------------------------|------------------------|


cold, alone you hand in .....

|---------------------------|-------------------------|---------------------|
|---------------------------|-------------------------|---------------------|
|-2--------5\---0--2--------|-5\--0--2----------------|-2--------5\--0--2---|
|-2--------5\---0--2--------|-5\--0--2--5-2p1p0h1p0---|-2--------5\--0--2---|
|-0--0--0-------------0--0--|-----------------------3-|-0--0--0----------0-0|
|---------------------------|-------------------------|---------------------|


the reaper               you can't escape ............

|-------------------------|------------------------|-----------------------|
|-----------10--13\10/13--|------------------------|-----------------------|
|-5\---0--2--9--12\-9/12--|-------5\---0--2--------|-9--7--5----0----------|
|-5\---0--2--7--10\-7/10--|-------5\---0--2--------|-9--7--5----0----------|
|-------------------------|-0--0-------------0--0--|-7--5--3---------14\---|
|-------------------------|------------------------|------------3----------|


'Cause you feel life's unreal .........

|-------------------------|------------|-----------------------------------|
|-------------------------|------------|-----------------------------------|
|-------4--------6--------|-7----6-----|---------4--------6----------------|
|-------4--------6--------|-7----6-----|---------4--------6----------------|
|-0--2-----0--2-----0--2--|------------|---0--2-----0--2------0--2---------|
|-------------------------|------------|-----------------------------------|


blame, and you're wondering why.  Then you .......
|-------------------------|------------------------|-----------------------|
|-------------------------|------------------------|-----------------------|
|-7----7--6----4--2-------|-----4--------6---------|--7------6-------------|
|-7----7--6----4--2-------|-----4--------6---------|--7------6-------------|
|--------------------0----|--2-----0--2-----0--2---|-----------------------|
|-------------------------|------------------------|-----------------------|


What you sow can .......

|-------------------------|-----------------------|------------------------|
|-------------------------|-----------------------|------------------------|
|-------4--------6--------|-7---------9-----------|----5----5----7~--------|
|-------4--------6--------|-7---------9-----------|----5----5----7~--------|
|-0--2-----0--2-----0--2--|-----4/5---7-----------|-0----------------------|
|-------------------------|---------------0~w/bar-|------------------------|


              Hell on this ...

|------------------|--------------------------|----------------------------|
|------------------|--------------------------|----------------------------|
|--0-------2---5*--|-----------5--------5--7~-|--0--------2----------------|
|--0-------2-------|-----------5--------5--7~-|--0--------2----------------|
|----------0-------|-0---0--0-----0--0--------|-----------0----------------|
|-----3bf----------|--------------------------|-----3bf----------17\-------|


Now you live inside .........

|---------------------------|---------------------|-------------------------|
|---------------------------|---------------------|-------------------------|
|-2--------5\---0--2--------|-5\---0--2-----------|---------5\----0--2------|
|-2--------5\---0--2--------|-5\---0--2-----1p0---|---------5\----0--2------|
|-0--0--0-------------0--0--|------------0------3-|-0--0-0-------------0--0-|
|---------------------------|---------------------|-------------------------|


full throttle.  It's ........

|-------------------|-----------------------------|------------------------|
|-------------------|-----------------------------|------------------------|
|-5\---0--2--0dive--|--2--------5\---0--2---------|-5\--0--2---------------|
|-5\---0--2---------|--2--------5\---0--2---------|-5\--0--2---------------|
|-------------------|--0--0--0--------------0--0--|------------3/12\-------|
|-------------------|-----------------------------|------------------------|


The reaper's you and ........

|---------------------------|--------------------|-------------------------|
|---------------------------|--------------------|-------------------------|
|-2--------5\---0--2--------|-9--7--5---0--------|-------4--------6--------|
|-2--------5\---0--2--------|-9--7--5---0--------|-------4--------6--------|
|-0--0--0-------------0--0--|-7--5--3------------|-0--2-----0--2-----0--2--|
|---------------------------|-----------3--------|-------------------------|


doors, but there's no one at ..........
|-----------------|-------------------------|------------------------------|
|-----------------|-------------------------|------------------------------|
|--7------6-------|-------4--------6--------|-7----7--6----4--2------------|
|--7------6-------|-------4--------6--------|-7----7--6----4--2------------|
|-----------------|-0--2-----0--2-----0--2--|----------------------0-------|
|-----------------|-------------------------|------------------------------|


Where to hide?  Suicide ............

|-------------------------|-----------------|-------------------------|
|-------------------------|-----------------|-------------------------|
|-------4--------6--------|-7----7--6----4--|-------4--------6--------|
|-------4--------6--------|-7----7--6----4--|-------4--------6--------|
|-0--2-----0--2-----0--2--|-----------------|-0--2-----0--2-----0--2--|
|-------------------------|-----------------|-------------------------|


realy about?

|------------------------|------------|----------|-----------|-------------|
|------------------------|------------|----------|-----------|-------------|
|--7--------9------------|--2---------|----------|-----------|-------------|
|--7--------9------------|--2---------|----------|-----------|-----x-------|
|-----4/5---7------------|--0---------|----------|-----------|-----x-------|
|---------------0~w/bar--|------------|----------|-----------|-------------|
                           sustain-------------------------------- pick scrape


|------------|-----------|---------|-----------|----------|----------------|
|------------|-----------|---------|-----------|----------|----------------|
|--5---------|---4-------|--0------|---2-------|--5-------|-7--------0-----|
|--5---------|---4-------|--0------|---2-------|--5-------|-7--------0-----|
|------------|-----------|---------|---0-------|----------|----------------|
|------------|-----------|---------|-----------|----------|----------------|
volume swells


|----------------|--------------------|---------------|--------------------|
|----------------|--------------------|---------------|--------------------|
|--2-------------|----------2----4----|---5-----------|--4-----------------|
|--2-------------|----------2----4----|---5-----------|--4-----------------|
|--0-------------|--------------------|---------------|--------------------|
|----------------|--------------------|---------------|--------------------|


|-------------|--------------------|----------------|----------------------|
|-------------|--------------------|----------------|----------------------|
|--0----------|---2--------2--4----|--5-------------|--7------0------------|
|--0----------|---2--------2--4----|--5-------------|--7------0------------|
|-------------|---0----------------|----------------|----------------------|
|-------------|--------------------|----------------|----------------------|


|-------------------------------|------------------------------------------|
|-------------------------------|------------------------------------------|
|-2---------5\----0----2--------|--5\--------0---------2-------------------|
|-2---------5\----0----2--------|--5\--------0---------2-------------------|
|-0--0--0-----------------0--0--|--0---------------------------------------|
|-------------------------------|------------------------------3bf---------|


|-------------------------------|------------------------------------------|
|-------------------------------|------------------------------------------|
|-2---------5\----0----2--------|--5\--------0---------2--------5*---------|
|-2---------5\----0----2--------|--5\--------0---------2-------------------|
|-0--0--0-----------------0--0--|--0---------------------------------------|
|-------------------------------|------------------------------------------|


|-------------------------------|------------------------------------------|
|-------------------------------|------------------------------------------|
|-2---------5\----0----2--------|--5\--------0---------2----------2*~------|
|-2---------5\----0----2--------|--5\--------0---------2-------------------|
|-0--0--0-----------------0--0--|--0-----------------------3/4-------------|
|-------------------------------|------------------------------------------|


|-------------------------------|------------------------------------------|
|-------------------------------|------------------------------------------|
|-2---------5\----0----2--------|--5\--------0---------2-------------------|
|-2---------5\----0----2--------|--5\--------0---------2-------------------|
|-0--0--0-----------------0--0--|--0---------------------------0bf w/bar---|
|-------------------------------|------------------------------------------|


|-------------------------------|------------------------------------------|
|-------------------------------|------------------------------------------|
|-2---------5\----0----2--------|--5\--------0---------2-------0w/bar------|
|-2---------5\----0----2--------|--5\--------0---------2-------------------|
|-0--0--0-----------------0--0--|--0---------------------------------------|
|-------------------------------|------------------------------------------|


|-------------------------------|------------------------------------------|
|-------------------------------|------------------------------------------|
|-2---------5\----0----2--------|-9--7--5---0------------------------------|
|-2---------5\----0----2--------|-9--7--5---0------------------------------|
|-0--0--0-----------------0--0--|-7--5--3----------------------------------|
|-------------------------------|-----------3------------------3-----------|


Solo
|---------------|-----------|-------------------|--------------------------|
|---------------|-----------|-------------------|--------------------------|
|--2------------|-----------|--17\--------------|--------------------------|
|--2------------|------x-x--|--17\----2---------|--------------------------|
|--0------------|-/15-------|-------------------|--------------------------|
|---------------|-----------|-------------------|-------------------/12\---|


|---------------------|-------------------|--------------------------------|
|---------------------|-------------------|--------------------------------|
|--------------7b1/2--|-p5----------------|5-------------------------------|
|-----------x---------|-------------------|5-------------------------------|
|---------------------|-----------------x/|--------------------------------|
|-/17\----------------|-------------------|--------------------------------|

                    1/2
|----------------|------------|--------------------|-----------------------|
|----------------|------------|--------------------|-----------------------|
|vol-swells------|--7b--------|--0dive w/bar-------|-------17--------------|
|----------------|------------|--------------------|-------17--------------|
|----------------|------------|--------------------|-h3--------------------|
|----------------|------------|--------------------|-----------------------|


|--------------|-------------------------|---------------------------------|
|--------------|-13divew/bar-------------|---------------------------------|
|--14~w/bar----|-------------------------|-------0-dive-w/bar--------------|
|--------------|-------------------------|---------------------------------|
|-----------7\-|-------------------------|---------------------------------|
|--------------|-------------------------|---------------------------------|
           dive

|------------|--------------------|----------------------------------------|
|------------|--------------------|----------------------------------------|
|-0-dive-----|----------0---------|--/17\----------------------------------|
|------------|--------------------|----------------------------------------|
|------------|-0------------------|----------0-hold bar down---------------|
|------------|--------------------|----------------------------------------|


|------------------|--------------------|----------------------------------|
|------------------|--------------------|----------------------------------|
|------------------|---2p0-dive---------|----------------------------------|
|------------------|--------------------|-----5~-w/bar---------------------|
|-0-return---------|--------------------|----------------------------------|
|------------------|--------------------|----------------------------------|


|-----------------|-------------------|-------------------|----------------|
|-----------------|-------------------|-------------------|----------------|
|-----------------|-------------------|--7dive---p4~------|----------------|
|-5--2dive--------|--h5-----14/17~----|-------------------|-2dive--h5dive--|
|-----------------|-------------------|-------------------|----------------|
|-----------------|-------------------|-------------------|----------------|

11.GOODBYE TO ROMANCE

INTRO
E|-----0--2-3-2p0--2-0-----0-----0------------------0-----------|
B|--3-------------------3-----3----2------2------3--------------|
G|-------------------------------------4-----0------------------|
D|--------------------------------------------------------------|
A|--------------------------------------------------------------|
E|--------------------------------------------------------------|

E|--5---------5-------5------------9------12----0--------0-----------------|
B|--7----7------------7------------10-----10----3------3---3---0p2-3/5-----|
G|--6-----------------6------------9------9-----0----0---------0p2-4/6-----|
D|--7----7------------7------------11-----11----0--------------------------|
A|--5-----------------5------------9------9-----X--------------------------|
E|----------------------------------------------3--------------------------|

E|-------------------------------------------------|
B|--7--5--3----2h3h5-------------------------------|
G|--7--6--4----2-----------------------------------|
D|-------------------------------------------------|
A|-------------------------------------------------|
E|-------------------------------------------------|

E|--5----------5----9p5-----------9-----12----0--------------------------------|
B|--7-----7--------------7--------12----10----3---0h2--3/5---7---5---3-----5---|
G|--6-----------------------6-----9-----9-----0---0h2--4/6---7---6---4-----6---|
D|--7-----7-----------------------11----11----0--------------------------------|
A|--5-----------------------------9-----9-----x--------------------------------|
E|--------------------------------------------3--------------------------------|
[ Tab from: http://www.guitartabs.cc/tabs/o/ozzy_osbourne/live_and_loud_tab.html ]
E|--2--------------2-------------------------------------2-------|
B|--3---3-----3/5----------------3p2---------------3-------3-----|
G|--2------2----------------2--------2-----------4---4-------4---|
D|--0---------------------2--2---------2-----------------------4-|
A|---------------------4----------------------2------------------|
E|---------------------------------------------------------------|

                                                                       
E|------------0------------0------------0----------0---0-0--0-0--|----------|  1st
B|-------3------3----------3-----3--------3---3----3---3-3--2-2--|----------|ending
G|-----4---4------4--------0---0---0--------0------0---0-0--0-0--|----------|:repeat
D|------------------4------0-----------------------2---2-2--2-2--|-----0h2--|
A|--0----------------------X-----------------------0---0-0--0-0--|-0h2------|
E|-------------------------3-------------------------------------|----------|

E|----0--2-5---3p2---2p0-----0----0---------------------------|  second ending
B|--3----------------------3----3----2h3p2-----2-----3--------|
G|------------------------------------------4------0----0-----|
D|------------------------------------------------------------|
A|------------------------------------------------------------|
E|------------------------------------------------------------|

SOLO
E|------------------------15-14------14h15p14----14----------------14------|
B|------------------------------17------------17----17-15-14---17b-----17--|
G|------7h9--7--/11--/14---------------------------------------------------|
D|--7h9--------------------------------------------------------------------|
A|-------------------------------------------------------------------------|
E|-------------------------------------------------------------------------|

E|--14-15--17p15p14-----------------------------14h15p14h15p14---15h17p15h17p15-|
B|------------------17p15p14-----------14h15h17---------------------------------|
G|---------------------------16p14h16-------------------------------------------|
D|------------------------------------------------------------------------------|
A|------------------------------------------------------------------------------|
E|------------------------------------------------------------------------------|

E|-17h19p17h19p17--19h21p19h21p19--21b--21-19--21p19-----19-21b---|
B|----------------------------------------------------21----------|
G|----------------------------------------------------------------|
D|----------------------------------------------------------------|
A|----------------------------------------------------------------|
E|----------------------------------------------------------------|

E|-------7-------------------7-9b7-----7--------------------------|
B|-----7---10p7--8p7----7-----------10---10p8p7--8p7-----------7--|
G|--9b---------------9b---9--------------------------9--6-7-9-----|
D|----------------------------------------------------------------|
A|----------------------------------------------------------------|
E|----------------------------------------------------------------|


E|--9h10--7h9----7---------------------------------------|
B|------------10---8h10-7h10---7-------------------------|
G|---------------------------9----7h9-6h7---9~--11~------|
D|-------------------------------------------------------|
A|-------------------------------------------------------|
E|-------------------------------------------------------|


E|--------------------15h17h19p17p15-----------14~-------|
B|-----------15h17h19----------------19p17p15--15~-------|
G|--14h16h18---------------------------------------------|
D|-------------------------------------------------------|
A|-------------------------------------------------------|
E|-------------------------------------------------------|

12.SHOT IN THE DARK

Intro 2 times  
with Distortion
e[-----------18-18b20-18~~~~--18-20-18--22b-------------
B[------18----------------------------------------------
G[-15---------------------------------------------------
D[------------------------------------------------------
A[------------------------------------------------------
E[------------------------------------------------------

Intro part 2, 2 times
e[------------------------------------------------------
B[------------------------------------------------------
G[--------6-----5---6-5---------------------------------
D[-xx-----6-----5---6-5---------------------------------
A[-xx-----4-xxx-3---4-3---------------------------------
E[----0-0---------------(4)-----------------------------
    PM...

Verse
Clean
e[------------------------------------------------------
B[-------1------1---------------------------------------
G[-----3------3---3--------------3-------3--------------
D[---3--------------3---3------4-------4---4------------
A[-1--------1---------1------4-------4-------4----------
E[-------------------------2-------2--------------------

e[-------1------1-----------------------------------------
B[------------1----------------4-------4------------------
G[-----3----3-----3---------------------------------------
D[---3--------------3--------4-------4---4----------------
A[-1------1-----------1----4-------4-------4--------------
E[-----------------------2-------2------------------------

Pre-Chorus
Distortion
e[------------------------------------------------------
B[------------------------------------------------------
G[-5-----6-8----5-----6-8---6-5----6-5------------------
D[-5-----6-8----5-----6-8---6-5----6-5------------------
A[-3-----4-6----3-----4-6---4-3----4-3------------------
E[------------------------------------------------------

e[------------------------------------------------------
B[------------------------------------------------------
G[-5-----6-8----5-----6-8-------------------------------
D[-5-----6-8----5-----6-8------3------------------------
A[-3-----4-6----3-----4-6------3------------------------
E[-----------------------------1------------------------

Chorus
Distortion
e[------------------------------------------------------
B[------------------------------------------------------
G[-3-----------------6---5------------------------------
D[-3-----------------6---5--6-(4)-----------------------
A[-1-----------------4---3--6-(4)-----------------------
E[--------------------------4-(2)-----------------------

Intro Part 2

Verse

Chorus

Interlude
e[------------------------------------------------------
B[------------------------------------------------------
G[-6---13r11--6-10b11r10~~~-4---13r11--6-10b11r10~~~----
D[-6------------------------4---------------------------
A[-4------------------------2---------------------------
E[------------------------------------------------------

GUITAR SOLO
e[------------------------------------------------------
B[-11p9-11~~~~-9b11-9-----------------------------------
G[-------------------10p8---10p8---10p8----10~~~~~------
D[-----------------------8p6----8p6----8p6--------------
A[------------------------------------------------------
E[------------------------------------------------------

e[------------------------------------------------------
B[------------------------------------------------------
G[-10-8------------8------------------------------------
D[------8-6----6-8---6br--------------------------------
A[------------------------11p8-11p8----11-13-14---------
E[------------------------------------------------------

e[------------------------------------------------------
B[-11----------13------14------16------18~~~~~----------
G[------------------------------------------------------
D[------------------------------------------------------
A[------------------------------------------------------
E[------------------------------------------------------
  TR..............................

13.NO MORE TEARS

intro (bass arranged for guitar)
RIFF #1                             (w/slide) steady gliss(don't pick)
-----||----------------------------||-(10)/(13)/(14)/------------------
-----||----------------------------||-(10)/(13)/(14)/----(15)\(14)\----
-----|.----------------------------.|------(13)/(14)/----(15)\(14)\----
-----|.---------H---------H------H-.|----------------------------------
---H-||-------3-5-------3-5----3-5-||----------------------------------
-3-5-||-0--0------0--0------0------||----------------------------------

(w/slide)                          F^^^^^                        ^^^^^
-----------------------------||----------------------------------------
-----------------------------||----------------------------------------
-(8)/(12)\(10)\----(3)/(10)--|.--5/7----/12\11/12\11-------------------
-(8)/(12)\(10)\----(3)/(10)--|.--5/7------------------12-------\10-----
-----------------------------||---------------------------12---\10-----
-----------------------------||----------------------------------------
(w/slide)               (no slide)
     ^^^^^   ^^         riff #2                                P.H.^^^
----------------/13\--||-----------------------------------------------
----------------/13\--||-----------------------------------------------
--7/10----7/12--------.|-----------------------------------------------
--7/10----7/12\-------.|--0-------0-3-0-/6--5-3-5-3---/6--------------0
----------------------||--0-------0-3-0-/6--5-3-5-3---/6--5-----------0
----------------------||--0-------0-3-0-/6--5-3-5-3-0-/6--5-3-5-3(PH)-0
                                  . . .     . . . . .
  ..is a crack in the sky.                                   ..blink of    

(w/slide)                   ^^^^                riff #3 (no slide)
----------------------------------------------||-----------------------
----------------------------------------------||----------5------------
--0/10-0--/13--12\10/12\10/13----12\10/12\10\-.|----------4------------
--0/10-0--/13--12\10/12\10/13----12\10/12/10\-.|-0--------2------------
----------------------------------------------||-0--------2------------
----------------------------------------------||-0--0-0-0-2--0-0-0-0-0-
                                                (PM). . .    . . . . .
an eye                                             Your mamma told you

                              tr^^^^^
----------------------------------------------------------------------
----6-------------------------TR------------------5----------------6--
----5------------3(3)--------353------------------4----------------5--
----3------------3(3)----3/5---------0------------2----------------3--
----3------------1(1)----------------0------------2----------------3--
-00-3--0-0-0-0-0---------------------0--0-0-0-0-0-2--0-0-0-0-0--00-3--       
 ..    . . . . .                        . . . . .    . . . . .  ..
         ...to talk to strangers.       Look in the mirror
                   
                        (w/slide)steady gliss   (no slide at riff #4)
                  tr^^^^  ^^^^^              riff #4
--------------------------------------/13\-||------------------------
------------------TR-----/9-----/10---/13\-||------------------------
-----------3-----353----4/9----5/10--------|.---7----5----4----3-----
-----------3--8---------4/9----5/10--------|.-0----0-----------3-----
-----------1--8----------------------------||----------/5----5-------
-0-0-0-0-0----8----------------------------||------------------------
 . . . . .
                                     No more tears.

(3 times)
---------||
---------||
---------.|
---------.|
-5-6-5-3-||
-5-6-5-3-|| verse starts with riff #2,
 . . . .
No more...


Guitar Solo
   ^^^^^                     ^^         ^^^^^                   ^^^^^^
----------------------------------------------------------------------
----------------10---B(full)------------------B(full)----P---B--B(full) 
--11----11--12------12------12--11--9--10----12-----(12)10--12-12-----
----------------------------------------------------------------------
----------------------------------------------------------------------
----------------------------------------------------------------------

^^^^^^     ^^^^              ^^^^^^^            ^^^^^^   B(full)   B
-----------------------------B(full)-B(full)----B(1.5)--15(15)13--15--
--B(full)---------------10--13------15(15)13---15---------------------
-12(12)---11----11--12------------------------------------------------
----------------------------------------------------------------------
----------------------------------------------------------------------
----------------------------------------------------------------------

   B     B   B    B   B                 ^^^^
--15----15--15---15--15(15)13-14----x---B---10-----------10--B--------
---------------------------------15-x--13------13-10--B-----12(12)----
-----------------------------------------------------12--------10-----
------------------------------------------------------------------12--
----------------------------------------------------------------------
----------------------------------------------------------------------

                                                ^^^^^
---------B(.25)-------------------------------------------------------
-12-----10--------------P--P--------12----10-------------P--P------12-
-12-----10------------13-12-10------12----10B(.5)------13-12-10----12-
----12-----12-10---12----------12------12------12---------------12----
----------------------------------------------------------------------
----------------------------------------------------------------------

                                 ^^^^^                      (.25)
---------------------------------B----10---P--------10---P---B--
------------12----10------------13-------13-10--B------13-10-8--
-12-10------12----10B(.5)----------------------12---------------
-------12------12---------12-10---------------------------------
----------------------------------------------------------------
----------------------------------------------------------------

                           B    B                   B(.5) B    B(.5) B
--------------------------15---15(15)--13----15----13----15---13----15
-10--B---P-------------------------------(15)--(15)--(15)--(15)---(15)
----12(12)10---12-10--------------------------------------------------
---------------------12-----------------------------------------------
----------------------------------------------------------------------
----------------------------------------------------------------------

  B      B(.5) ^^^^^       
-15(15)-13-----------13-10-13-10-------13-10-13-10-------13-10-13-10-----
--------------15----------------13-10-------------13-10-------------13-10
-------------------------------------------------------------------------
-------------------------------------------------------------------------
-------------------------------------------------------------------------
-------------------------------------------------------------------------


-13-10-13-10-------15-13-15-13-------15-13-15-13-------15-13-15-13------       
------------13-10-------------15-13-------------15-13-------------15-13-
------------------------------------------------------------------------
------------------------------------------------------------------------
------------------------------------------------------------------------
------------------------------------------------------------------------


-15-13-15-13-------17-15-17-15-------17-15-17-15-------17-15-17-15------
------------15-13-------------18-15-------------18-15-------------18-15-
------------------------------------------------------------------------
------------------------------------------------------------------------
------------------------------------------------------------------------
------------------------------------------------------------------------


-17-15-17-15-------18-15-13--18-15-13--18-15-13--18-15-13--20-17-15---
------------18-15----------15--------15--------15--------15--------17-
----------------------------------------------------------------------
----------------------------------------------------------------------
----------------------------------------------------------------------
----------------------------------------------------------------------

                                B^^^
-20-17-15--20-17-15--20-17-15--20---(20)\-----------------------------
---------17--------17--------17---------------------------------------
----------------------------------------------------------------------
----------------------------------------------------------------------
----------------------------------------------------------------------
----------------------------------------------------------------------

fill before returning to riff #2
(w/slide)
    ^^^^                       ^^^^    ^^^^^
----------------------------------------------------/15\-------------
---(7)---8\7--8--(8)\7------------------------------/15\(SHAKE SLIDE)
--5/7-------------------7-----\5--(5)/10------9/12-------------------
--5/7----------------------7--\5--(5)/10------9/12-------------------
---------------------------------------------------------------------
---------------------------------------------------------------------

14.MIRACLE MAN

Play (Riff) (4X)                   (b)up 1/2 step
 (intro)
|------------5--------------------5---------------|
|------------5--------------------5---------------|
|---------------4---2--1------------4(b)--2-------|
|---------------4---2--2------------4(b)--2-------|
|-------------------------------------------------|
|----2-2-2-2--------------2-2-2-2-----------------|


Riff2 Play 4X                        (hold)  "looking for a Mir-acle
Man                    
                                                  (first 2 verses)
|--------------------------------|----------|-----------------------------|
|--------------------------------|----------|-----------------------------|
|--------------------------------|----------|-----------------------------|
|--------------------------------|------(4)-|-----------------------------|
|----4--4----------4--2----------|------(2)-|--4-4------------------------|
|----O--2--2-2-2-2-O--O--2-2-2-2-|--2-2-----|--O-2-2-2-2-2-2-2--2--2--2--2|

  "that tells me no lies"        
                 {pinch harmonic}   I     don`t  know....from| 
|--------------------------------||------7(b)-7--5-----------|
|--------------------------------||------7(b)-7--5-7---------|
|---4------------------------{9}-||----------------7---------|
|---2--4-4-----------------------||---6--------------9-- 11--|
|------2-2-----4--4--------------||---4--------------7----9--|
|----------X-X-O--2-O-2-O-2------||-----------------------9--|

I  don`t know where...been!
|----7(b)-7-5----------------|
|----7(b)-7-5--7-------------|
|--------------7-------------|
|--6---------------9------11-|
|--4---------------7-------9-|

Not our Jimmy sinner...                                    he`s so
obscene
          (6th verse) [let ring]                            {pinch
harm.}       
|-------------------------------------------------------------------------|
|-------------------------------------------------------------------------|
|-------------------------------------------------------------------------|
|--6--9--9--8--6--4--6--[6]-----------------------------------------------|
|--4--7--7--6--4--2--4--[4]--5-5-5-5-5-4-4-4-4-4-3-3-3-3-3-2-2-2-2-2------|
|--------------------------------------------------------------------{3~}-|

    Miracle Man Your busted/ Miracle Man.....

|------------5----------------------------------|
|------------5----------------------------------|
|----------------4--2--1-------------4--2--1----|
|----------------4--2--2-------------4--2--2----|
|-----------------------------------------------|
|--2-2-2-2------------------2-2-2-2-------------|






solo:
eb|-----9--14--------9--14-------9--14-------9--14--|
Bb|-12-----------12----------12----------12---------|
Gb|-------------------------------------------------|
Db|-------------------------------------------------|
Ab|-------------------------------------------------|
Eb|-------------------------------------------------|

eb|------12--16-------12--16-------12--16------12--16---|
Bb|--14-----------14-----------14-----------14----------|
Gb|-----------------------------------------------------|
Db|-----------------------------------------------------|
Ab|-----------------------------------------------------|
Eb|-----------------------------------------------------|

eb|------14--17-------14--17-------14--17-------14--17--------|
Bb|--15-----------15-----------15-----------15----------------|
Gb|-----------------------------------------------------------|
Db|-----------------------------------------------------------|
Ab|-----------------------------------------------------------|
Eb|-----------------------------------------------------------|



Ending 1:
eb|--19--14----------17--14-----------19--14----------17--14-----------------|
Bb|----------17--14----------17--14-----------17--14----------17--14---------|
Gb|---------------------------------------------------------------------16^~~|
Db|--------------------------------------------------------------------------|
Ab|--------------------------------------------------------------------------|
Eb|--------------------------------------------------------------------------|
note: This is extremely hard and extremely fast.



Ending 2:
eb|---------------------------------------------------------------|
Bb|---17~-------17~-----------------------------------------------|
Gb|-------16~--------14~------------------------------------------|
Db|---------------------------------------------------------------|
Ab|---------------------------------------------------------------|
Eb|---------------------------------------------------------------|
   Vibrato the hell out of these notes



("rock bends") Its hard to show the rhythm for the bend, but listen
to the CD and figure it.
eb|---------------------------------------------------------------|
Bb|--2------------------------------------------------------------|
Gb|--4^--4-4-4-4-4-----7^-slide-/21-------------------------------|
Db|---------------------------------------------------------------|
Ab|---------------------------------------------------------------|
Eb|---------------------------------------------------------------|
With your picking hand, take your index finger and do a finger tap
on the 7 while you bend the 2/4 bend 1/2 step.  After that, slide
your finger up to the 21st fret and bend the 2/4 bend 1 whole step.


     1/2                         1/2
eb|---------------------------------------------------------------|
Bb|---------------------------------------------------------------|
Gb|--11^--11--9--11--9-----------11^--11--9--11--9----------------|
Db|---------------------11--9-----------------------11--9---------|
Ab|---------------------------------------------------------------|
Eb|---------------------------------------------------------------|



              (rock bend, half step)
eb|----------------9----------------------------------------------|
Bb|--7/-8--7/-8----12^--------------------------------------------|
Gb|--8/-9--8/-9---------------------------------------------------|
Db|--7/-8--7/-8---------------------------------------------------|
Ab|---------------------------------------------------------------|
Eb|---------------------------------------------------------------|


Rock bends...............      Vibrato the hell out of these notes!
eb|---------------------------------------------------------------|
Bb|--2--4--5--7--9---10--12---------------------------------------|
Gb|--4--6--7--9--11--12--14-----21~~~~21~~~~21~~~~~21~~~~~~-------|
Db|---------------------------------------------------------------|
Ab|---------------------------------------------------------------|
Eb|---------------------------------------------------------------|

15.DRUM SOLO

16.WAR PIGS

Don't Know

17.BARK AT THE MOON

Intro
  Q=150
 4/4
  Gtr I
            PM----|    PM----|    PM---
  E E     E S S S S  E S S S S  E S S
|-----||------------------------------|
|---8-||-10---------10---------10-----|
|---7-||--9----------9----------9-----|
|---5-||--7----------7----------7-----|
|-----||----0-0-0-0----0-0-0-0----0-0-|
|-----||------------------------------|


 ---|   PM----|   PM------|     PM----|   PM----|   PM|
  S S E S S S S E S S S S E   E S S S S E S S S S E S S
|---------------------------|-----------------------------|
|-----8---------8-----------|-8---------8---------8-------|
|-----9---------9-----------|-7---------7---------7-------|
|-----7---------7-----------|-5---------5---------5-------|
|-0-0---0-0-0-0---0-0-3p0---|---0-0-0-0---0-0-0-0---0-0---|
|-------------------------0-|-----------------------------|


  PM|   PM|   PM|   PM|        PM----|    PM----|    PM---
  S S E S S E S S E S S E    E S S S S  E S S S S  E S S
|-----------------5-------|------------------------------|
|-----6-----6-----6-----8-|-10---------10---------10-----|
|-----5-----4-----4-----7-|--9----------9----------9-----|
|-----3-----5-----5-----5-|--7----------7----------7-----|
|-0-0---0-0---0-0---0-0---|----0-0-0-0----0-0-0-0----0-0-|
|-------------------------|------------------------------|


 ---|             PM------|
  S S E S S S S E S S S S E
|----------------------------|
|-----8---------8------------|
|-----9---------9------------|
|-----7---------7------------|
|-0-0---0-0-0-0---0-0-5p0----|
|-------------------------3--|


                                              $
    PM----|   PM----|   PM|
  E S S S S E S S S S E S S   E E E E E E E E
|---------------------------|-----------------|
|-8---------8---------8-----|-----------------|
|-7---------7---------7-----|-----------------|
|-5---------5---------5-----|-----------------|
|---0-0-0-0---0-0-0-0---0-0-|-1-0-1-3-1-0-----|
|---------------------------|-------------3-1-|


   Verses
       PM----|    PM----|    PM|
     E S S S S  E S S S S  E S S
||--------------------------------|
||o-10---------10---------10------|
||---9----------9----------9------|
||---7----------7----------7------|
||o----0-0-0-0----0-0-0-0----0-0--|
||--------------------------------|


  PM|   PM----|   PM--------|
  S S E S S S S E S S S S S S
|-----------------------------|
|-----8---------8-------------|
|-----9---------9-------------|
|-----7---------7-------------|
|-0-0---0-0-0-0---0-0-0-0-0-0-|
|-----------------------------|


    PM----|   PM----|   PM------|   PM|   PM|   PM|
  E S S S S E S S S S E S S   S S E S S E S S E S S E
|---------------------------|-----------------5-------|
|-8---------8---------8-----|-----6-----6-----6-----6-|
|-7---------7---------7-----|-----5-----4-----4-----5-|
|-5---------5---------5-----|-----3-----5-----5-------|
|---0-0-0-0---0-0-0-0---0-0-|-0-0---0-0---0-0---0-0---|
|---------------------------|-------------------------|


     PM----|    PM----|    PM---
   E S S S S  E S S S S  E S S
|------------------------------|
|-10---------10---------10-----|
|--9----------9----------9-----|
|--7----------7----------7-----|
|----0-0-0-0----0-0-0-0----0-0-|
|------------------------------|


 ---|   PM----|   PM--------|     PM----|   PM----|   PM|
  S S E S S S S E S S S S S S   E S S S S E S S S S E S S
|-----------------------------|-----------------------------|
|-----8---------8-------------|-8---------8---------8-------|
|-----9---------9-------------|-7---------7---------7-------|
|-----7---------7-------------|-5---------5---------5-------|
|-0-0---0-0-0-0---0-0-0-0-0-0-|---0-0-0-0---0-0-0-0---0-0---|
|-----------------------------|-----------------------------|


                    Pre-Chorus
  E E E E E E E E    H..       S S   W          H..       S S
|-----------------||-2---------0-0-|-0--------|-2-------------|
|-----------------||-2---------3-3-|-3--------|-5-------------|
|-----------------||-2---------2-2-|-2--------|-4-------------|
|-----------------||-4---------0-0-|-0--------|-2-------------|
|-1-0-1-3-1-0-----||-4---------0-0-|----------|-2-------------|
|-------------3-1-||-2---------0-0-|----------|-0---------2-2-|


  PM----------------------------|
  S S S S S S S S S S S S S S S S   W          W          H..       S S
|---------------------------------|-2--------|-0--------|---------------||
|---------------------------------|-2--------|-3--------|-5-------------||
|---------------------------------|-2--------|-2--------|-4-------------||
|---------------------------------|-4--------|-0--------|-2-------------||
|-4-4-----2-2-----5-5-----4-4-----|-4--------|----------|-2-------------||
|-----2-2-----2-2-----2-2-----2-2-|-2--------|----------|-0---------2-2-||
|
| PM----------------------------|
| S S S S S S S S S S S S S S S S   W          W          W
|---------------------------------|----------|----------|---------------||
|---------------------------------|----------|----------|---------------||
|---------------------------------|----------|----------|---------------||
|---------------------------------|----------|----------|---------------||
|-4-4-----5-5-----2-2-----4-4-----|----------|----------|---------------||
|-----2-2-----2-2-----2-2-----2-2-|----------|----------|---------------||
|
| PM----------------------------|
| S S S S S S S S S S S S S S S S   W          W          W
|---------------------------------|----------|----------|---------------||
|---------------------------------|----------|----------|---------------||
|---------------------------------|----------|----------|---------------||
|---------------------------------|----------|----------|---------------||
|-5-5-----4-4-----2-2-----5-5-----|----------|----------|---------------||
|-----2-2-----2-2-----2-2-----2-2-|----------|----------|---------------||


  1.
                        PM----|    PM----|    PM---
  Q     Q   Q  E E    E S S S S  E S S S S  E S S
|------------------|------------------------------|
|-9--------------8-|-10---------10---------10-----|
|-9--------------7-|--9----------9----------9-----|
|-9--------------5-|--7----------7----------7-----|
|-7----------------|----0-0-0-0----0-0-0-0----0-0-|
|------------------|------------------------------|
|
| Gtr II
| \2____/
| Q    +H.            W
|------------------|------------------------------|
|------------------|------------------------------|
|------------------|------------------------------|
|------------------|------------------------------|
|------------------|------------------------------|
|-0----(0)---------|------------------------------|


 ---|   PM----|   PM--------|
  S S E S S S S E S S S S S S
|-----------------------------|
|-----8---------8-------------|
|-----9---------9-------------|
|-----7---------7-------------|
|-0-0---0-0-0-0---0-0-0-0-0-0-|
|-----------------------------|
|
| W
|-----------------------------|
|-----------------------------|
|-----------------------------|
|-----------------------------|
|-----------------------------|
|-----------------------------|


    PM----|   PM----|   PM------|   PM|   PM|   PM|
  E S S S S E S S S S E S S   S S E S S E S S E S S E
|---------------------------|-------------------------|
|-8---------8---------8-----|-----6-----6-----------8-|
|-7---------7---------7-----|-----5-----4-----4-----7-|
|-5---------5---------5-----|-----3-----5-----5-----5-|
|---0-0-0-0---0-0-0-0---0-0-|-0-0---0-0---0-0---0-0---|
|---------------------------|-------------------------|


     PM----|    PM----|    PM|
   E S S S S  E S S S S  E S S
|-------------------------------|
|-10---------10---------10------|
|--9----------9----------9------|
|--7----------7----------7------|
|----0-0-0-0----0-0-0-0----0-0--|
|-------------------------------|


  PM|   PM----|   PM------|     PM----|   PM----|   PM------------------|
  S S E S S S S E S S S S E   E S S S S E S S S S E S S   E E E E E E E E
|---------------------------|---------------------------|-------------------||
|-----8---------8-----------|---------------------------|------------------o||
|-----9---------9-----------|-7---------7---------7-----|-------------------||
|-----7---------7-----------|-5---------5---------5-----|-------------------||
|-0-0---0-0-0-0---0-0-3-0-0-|---0-0-0-0---0-0-0-0---0-0-|-1-0-1-3-1-0------o||
|---------------------------|---------------------------|-------------3-1---||


                    Chorus
  2.,3.,D.S.
                        PM|
  Q     Q   H        Q  E E E E E E
|-----------------||----------------|
|-9---------------||----------------|
|-9---------------||-2------5-7---4-|
|-9---------------||-2------5-5---5-|
|-7---------------||-0--0-0---------|
|-----------------||----------------|
|
| Gtr II
|   \2______/
| E Q.     +H        W
|-----------------||----------------|
|-----------------||----------------|
|-----------------||----------------|
|-----------------||----------------|
|-----------------||----------------|
|---0------(0)----||----------------|


  +E  S S S S S S S S E E E   E E E E +Q   E S S
|---------------------------|-------0-(0)--0------|
|---------------------------|-------0-(0)--1------|
|-(4)-----4-4-----5s7p5-4---|-4s2---2-(2)--2------|
|-(5)-5-5-----5-5-----------|-5s3---3-(3)--3------|
|-----------------3s5p3-2---|----------------0-0--|
|-------------------------3-|---------------------|
|
|  W                          W
|---------------------------|---------------------|
|---------------------------|---------------------|
|---------------------------|---------------------|
|---------------------------|---------------------|
|---------------------------|---------------------|
|---------------------------|---------------------|


                         PM--|               PM------------------------|
  E E E E +Q   E E    Q  E S S E E E E   +E  S S S S S S S S S S S S S S
|-------0-(0)--0----|------------------|----------------------------------|
|-------0-(0)--0----|----------------3-|-(3)------------------------------|
|-2-4---4-(4)--4-x\-|-2--------5-7---4-|-(4)-----4-4-----7-7-5-5-4-4------|
|-3-2---2-(2)--2-x\-|-2--------5-5---5-|-(5)-5-5-----5-5-------------5-5--|
|-------2-(2)--2-x\-|-0--0-0-0---------|----------------------------------|
|-------0-(0)--0----|------------------|----------------------------------|


                                         Bridge
                                To Coda
                 PM|                         PM|  ~~~ PM       PM   ~~~
  E E E E +Q   E S S   E E E E +Q.   E    q  E E  Q   E E   q  E E  Q   E E
|-------0-(0)--0-----|-------0-(0)-----||-----------------|------------------|
|-------0-(0)--1-----|-------0-(0)-----||-----------------|------------------|
|-4s2---2-(2)--2-----|-2-4---4-(4)-----||-----------------|------------------|
|-5s3---3-(3)--3-----|-3-2---2-(2)---2-||-3-------------2-|-3----------------|
|--------------------|-------2-(2)---2-||-3--3-1-[2]--3-2-|-3--3---[2]--3----|
|----------------0-0-|-------0-(0)---0-||-1-------------0-|-1----1--------1--|


                  \2
                              PM     PM|  ~~~ PM       PM   ~~~
  Q  Q  E E E E   H.      +E  E   q  E E  Q   E E   q  E E  Q   E E
|----3--5---3---|-3-------(3)---|-----------------|-----------------|
|-3-------3-----|-3-------(3)---|-----------------|-----------------|
|-0-----------0-|---------------|-----------------|-----------------|
|-0-------------|---------------|-3-------------2-|-3---------------|
|---------------|-------------2-|-3--3---[2]--3-2-|-3--3---[2]--3---|
|-3-------------|-------------0-|-1----1--------0-|-1----1--------1-|


             \1___/
                                     PM|  ~~~ PM       PM|  ~~~
  W          A   +H.      +E  E   q  E E  Q   E E   Q  E E  Q   E E
|-3--------|--------------------|-----------------|------------------|
|-3--------|--------------------|-----------------|------------------|
|-0--------|--------------------|-----------------|------------------|
|-0--------|--------------------|-3---------------|------------------|
|----------|-0---(0)------(0)---|-3--3---[2]--3---|----3---[2]--3----|
|-3--------|------------------0-|-1----1--------0-|-1----1--------1--|


                     \2
        T
  H    +H            H..       E   H..       E    H..       E
|-----------------|--------------|-----------0-|--5-----------|
|-3----(3(12))----|--------------|-------------|--6-----------|
|-0----(0(12))----|--------------|-------------|--7-----------|
|-0----(0(12))----|-<5>----------|-3-----------|--7-----------|
|-----------------|--------------|-3-----------|--5---------3-|
|-3---------------|------------0-|-1-----------|--------------|
|
|                                Gtr II
|                                  <
|                                  ~~~~~~~~~~~~~~~~~~~
| w                  w             w             +w
|-----------------|--------------|-------------|--------------|
|-----------------|--------------|-------------|--------------|
|-----------------|--------------|-7-----------|-(7)----------|
|-----------------|--------------|-------------|--------------|
|-----------------|--------------|-------------|--------------|
|-----------------|--------------|-------------|--------------|


   H.      E E   +E  E q  q  q     q   E E q  E E   +q   E E q  E E
|----------0---|----------1-----|-----------------|-----------------||
|--3---------3-|-(3)---1--------|------5---5----3-|-(3)--5---3--5---||
|--3-----------|-----3-------3--|--5-----5----5---|--------5-5--5---||
|--3-----------|-------------3--|--5----------5---|----------5--5---||
|--1-----------|----------------|--3--------------|---------------3-||
|--------------|----------------|-----------------|---------------3-||
|
|  ~~~~~~~~~~~~~~~~~~~~~~~~~~~~~~~~~~~~~~~~~~~~~~~~~~~~~
| +w             +w               +w                +w
|--------------|----------------|-----------------|-----------------||
|--------------|----------------|-----------------|-----------------||
|-(7)----------|-(7)------------|-(7)-------------|-(7)-------------||
|--------------|----------------|-----------------|-----------------||
|--------------|----------------|-----------------|-----------------||
|--------------|----------------|-----------------|-----------------||


 guitar solo
  gtr ii
    ~~~~
                                                |--3--|
    H.          E  E          +q.         +E    E  E  E  q
|--------------------------|-------------------10--------------|
|-/13-----------x-13b14====|=(13)b15=====(13)r----13-10--------|
|---------------x----------|----------------------------12b14r=|
|---------------x----------|-----------------------------------|
|--------------------------|-----------------------------------|
|--------------------------|-----------------------------------|
|
| gtr i
|             pm---------|                 pm
|   q   E E E E E  s     s     q       E   E    q        q
|---5-----5-5--------------|---5-------5-----------------------|
|---6-----6-6--------------|---6-------6--------5--------5-----|
|---7-----7-7--------------|---7-------7--------5--------5-----|
|---7-----7-7--------------|---7-------7--------5--------5-----|
|---5-----5-5-5-5--5-----5-|---5-------5---5----3--------3-----|
|--------------------------|-----------------------------------|


               ~~~~~~~~                            ~~~
   +E.  s  E   E   +E  E  E E      s s  E E  E  A  q.     s  s
|-------------------------------|------------------------------|
|-------------------------------|------------------------------|
|-(12)-10-12-[10]-(10)-9-10-9---|-10p9----9--------------------|
|-------------------------------|------12---10-10s12-----------|
|-------------------------------|------------------------10h12-|
|-------------------------------|------------------------------|
|
|          pm          pm   pm|              pm
|   q      E   E    E  E  E s s    q      E  E     q   q
|---5----------5----5-----5-----|--5------5--------------------|
|---6----------6----6-----6-----|--6------6--------5-----------|
|---7----------7----7-----7-----|--7------7--------5-----------|
|---7----------7----7-----7-----|--7------7--------5-----------|
|---5------5---5----5--5--5-5-5-|--5------5--5-----3---0-------|
|-------------------------------|------------------------------|


                                            ~~~
               |--3--|
   s  s  s  s  s  s  s  e      +e   +s   s  q
|-------------------------------------------------|
|-------------------------------------------------|
|-------------------10-12b14==(12)r(12)-10-12s====|
|-10----12----10----------------------------------|
|----12----12----12-------------------------------|
|-------------------------------------------------|
|
|                                             pm|
|  q           E        E       E    E      E s s
|-------------------------------------------------|
|--3-----------3----------------3----3------3-----|
|--3-----------3----------------3----3------3-----|
|--3-----------3----------------3----3------3-----|
|--1-----------1--------1-------1----1------1-1-1-|
|-------------------------------------------------|


                                                                         ~~
  E   E  E  E        +H          +q     A      +E   E  s  s  s  s  s  s  E
|----------15b17====(15)------|-(15)r--15pb17r(15)-13-12h13p12----12-------|
|-------13--------------------|--------------------------------15----13-15-|
|-2/-14-----------------------|--------------------------------------------|
|-----------------------------|--------------------------------------------|
|-----------------------------|--------------------------------------------|
|-----------------------------|--------------------------------------------|
|
|                                                                  pm---|
| q      E  s     s   q   E E     H.                               E     E
|---------------------------3-|---3----------------------------------------|
|-3------3------------3-----3-|---3----------------------------------------|
|-3------3------------3-----3-|---3----------------------------------------|
|-3------3------------3-------|---5----------------------------------------|
|-1------1--1-----1---1---0---|---5----------------------------------------|
|-----------------------------|---3--------------------------------5-----5-|


    ~~~~             ~~
   +q    e  e  s  s  q    e    e  e  s  s  s  s  s  s  s  s  e  s  s
|-------------17p13---------|----13-17p13-15p13s12-13-12-------12----|
|-(15)--13-15-------15---13-|-15-------------------------13----------|
|---------------------------|-------------------------------14----14-|
|---------------------------|----------------------------------------|
|---------------------------|----------------------------------------|
|---------------------------|----------------------------------------|
|
|                                 pm                   pm       pm|
|   H          E     E E  E    E  E  E     s  s  E     E     E  s  s
|--------------5-----5-5--5-|--5-----5-----5--5--5-----------5-------|
|--------------5-----5-5--5-|--6-----6-----6--6--6-----------6-------|
|---2----------2-----2-2--2-|--7-----7-----7--7--7-----------7-------|
|---2----------2-----2-2--2-|--7-----7-----7--7--7-----------7-------|
|---0----------0-----0-0--0-|--5--5--5-----5--5--5-----5-----5--5--5-|
|---------------------------|----------------------------------------|


                             ~~~~
   E.    s     +E   +s   s   H
|------------------------------------|
|-13----15b18r(15)-(15)p13-[13]------|
|------------------------------------|
|------------------------------------|
|------------------------------------|
|------------------------------------|
|
|     pm             pm-|
|  e  e         e    s   s   q   q
|--5------------5--------------------|
|--6------------6------------5---5---|
|--7------------7------------5---5---|
|--7------------7------------5---5---|
|--5--5---------5----5---5---3---3---|
|------------------------------------|


  e  e     s  s  s  s     s  s  s  s  s  s  s     +s
|---------10----------------10------------------------|
|---13b15----13p10-------10----13p10----10------------|
|------------------12b14-------------12----12b14r(12)p|
|-----------------------------------------------------|
|-----------------------------------------------------|
|-----------------------------------------------------|
|
|    pm                         pm          pm---|
| E  E     E     s  s     E     E     E     s      s
|-5--------5-----5--5-----5-----------5---------------|
|-6--------6-----6--6-----6-----------6---------------|
|-7--------7-----7--7-----7-----------7---------------|
|-7--------7-----7--7-----7-----------7---------------|
|-5--5-----5-----5--5-----5-----5-----5-----5------5--|
|-----------------------------------------------------|


                ~~~~      ~~        ~~~~~~~~~~~~~~
   s  s  s  s   e   s  s  q   e.s   q.    e   +q      e s  s
|---------------------------------|---------------------------|
|---------------------------------|---------------------------|
|-10----12----[10]----------------|---------------------------|
|----12----12------12p10-12--10p8-|-8-----7---(7)-----5-x-10--|
|---------------------------------|---------------------------|
|---------------------------------|---------------------------|
|
|        pm         pm|                   pm------|     pm|
|  e     e      e   s  s  q   q     q   e s s  s  s e e s  s
|--5------------5-----------------|---------------------------|
|--6------------6---------5---5---|-3---3-------------3-------|
|--7------------7---------5---5---|-3---3-------------3-------|
|--7------------7---------5---5---|-3---3-------------3-------|
|--5-----5------5---5--5--3---3---|-1---1-1-1--1--1-1-1-1--1--|
|---------------------------------|---------------------------|


   ~~~                       ~~
                                                       |---3----|
   q.     e   +q    e.  s    q   e  e  e  s      +s   +s   +s   s  e
|-------------------------|--------------------------------------------|
|-------------------------|-----10----10-12b13==(12)-(12)-(12)r--------|
|-------------------------|-----10----10-12b14==(12)-(12)r(12)p10------|
|-10------8---(8)--10--10-|-12-----12-----------------------------12---|
|-------------------------|--------------------------------------------|
|-------------------------|--------------------------------------------|
|
|                                   pm---|                         pm|
|  E  E E s s  q    q        q   E  E  E  E            E           s s
|-------------------------|------5---------------------5---------------|
|-----3-3-----------------|------6---------------------6---------------|
|-----3-3------5----5-----|--7---7---------------------7---------------|
|-----3-3------5----5-----|--7---7---------------------7---------------|
|--1--1-1-1-1--3----3-----|--5---5--5--5--5------------5-----------5-5-|
|-------------------------|--------------------------------------------|


                  ~~
   E  E     s  s  E  +E   E q
|-------------------------------|
|-12------------------------x\--|
|-12-10b11------------------x\--|
|----------12p10-12-(12)----x\--|
|------------------------12-x\--|
|-------------------------------|
|
|  h                  q     q
|--5----------------------------|
|--6----------------------------|
|--7------------------7-----7---|
|--7------------------7-----7---|
|--5------------------5-----5---|
|-------------------------------|


  s  s s s s s s s s s s s s s s s
|----------------------------------|
|----------------------------------|
|--------------------------------3-|
|------------------3---3-5-7p5-7---|
|--------3-5p3-5-7---7-------------|
|-6p=5-6---------------------------|
|
| h..                          s s
|----------------------------------|
|-3----------------------------3-3-|
|-3----------------------------3-3-|
|-3----------------------------3-3-|
|-1----------------------------1-1-|
|----------------------------------|


  s s s s s s s s q.     s s   s s s s s s s s s s s s s s s s
|----------------------------|---------------------------------|
|---------5-----5-6b8--------|---------------------------------|
|-5p3-5h7---5-7--------------|-------------------------------5-|
|------------------------x-x-|-----------------5---5-7-8p7-8---|
|------------------------x-x-|-------5-7p5-7-8---8-------------|
|------------------------x-x-|-8p6-8---------------------------|
|
| q       e   s s q    q       w
|----------------------------|---------------------------------|
|-3-------x---3-3-3----3-----|-5-------------------------------|
|-3-------x---3-3-3----3-----|-5-------------------------------|
|-3-------x---3-3-3----3-----|-5-------------------------------|
|-1-------x---1-1-1----1-----|-3-------------------------------|
|----------------------------|---------------------------------|


                       ~~~
   s  s s s s s s s a  q.     +e      s s  s s s s s  s s  s s s  s s  s s
|----------------------------------|---------------------------------------|
|-----------6---6-8-8s10-----(10)\-|---------------------------------------|
|--7p=5-7h9---9--------------------|-------------------------------------7-|
|----------------------------------|--------------------7----7-8-10-8-10---|
|----------------------------------|---------7-8p7-8-10---10---------------|
|----------------------------------|-10p8-10-------------------------------|
|
|               pm|                                               pm
| +q.           s s    q   q          h.                          e    s s
|----------------------------------|---------------------------------------|
|-(5)-----------5-5----------------|---------------------------------------|
|-(5)-----------5-5----5---5-------|--2---------------------------2----2-2-|
|-(5)-----------5-5----5---5-------|--2---------------------------2----2-2-|
|-(3)-----------3-3----3---3-------|--0---------------------------0----0-0-|
|----------------------------------|---------------------------------------|


                                       tp tp
  s s s  s  s  s  s  s  s  s  s  s  e  s  s
|----------------------------------10-10-12--|
|-------------------10-11-10-11-13-----------|
|-9p7-9-10s12-10-12--------------------------|
|--------------------------------------------|
|--------------------------------------------|
|--------------------------------------------|
|
|                                   pm
| H.                                E  E
|--------------------------------------------|
|--------------------------------------------|
|-3------------------------------------3-----|
|-3------------------------------------3-----|
|-1---------------------------------1--1-----|
|--------------------------------------------|


   tp  tp tp tp tp tp tp tp tp tp tp tp tp tp tp tp tp tp tp tp tp tp
   |--3---|  |--3--|     |--3--|  |--3--|  |--3--|  |--3--|  |--3--|
   s   s  s  s  s  s  e  s  s  s  s  s  s  s  s  s  s  s  s  s  s  s
|-13--12-10-------------------12-15-13-12-------------------12-13-15-|
|-----------13-11-10-11-13-12-------------15-13-15-11-13-15----------|
|--------------------------------------------------------------------|
|--------------------------------------------------------------------|
|--------------------------------------------------------------------|
|--------------------------------------------------------------------|
|
|                                                   pm
|  H.                                               E        E
|--------------------------------------------------------------------|
|--3---------------------------------------------------------3-------|
|--0---------------------------------------------------------0-------|
|--0---------------------------------------------------------0-------|
|--2------------------------------------------------2--------2-------|
|--------------------------------------------------------------------|


   tp tp tp tp tp tp tp tp tp tp tp tp tp tp tp tp tp tp tp tp tp tp
   |--3--|  |--3--|  |--3--|  |--3--|  |--3--|  |--3--|  |--3--|
   s  s  s  s  s  s  s  s  s  s  s  s  s  s  s  s  s  s  s  s  s  e
|-17-15-13-------------------13-15-17-18-17-15-------------------15---||
|----------17-17-15-13-15-17-------------------18-18-17-15-17-18------||
|---------------------------------------------------------------------||
|---------------------------------------------------------------------||
|---------------------------------------------------------------------||
|---------------------------------------------------------------------||
|
|  q                 q                 E        E        E        E















|---------------------------------------------------------------------||
|--5-----------------5-----------------5--------5--------5--------8---||
|--5-----------------5-----------------5--------5--------5--------7---||
|--5-----------------5-----------------5--------5--------5--------5---||
|--3-----------------3-----------------3--------3--------3------------||
|---------------------------------------------------------------------||


   ~~~~~~~~~~~~~~~~~~~~~~~~~~~~~~~~~~~~~~~~~~~~~~~~~~~~~~~~~~~~~~~~~~~~
   q.          e  +q         q        +e      q.          h
|-17----------17-(17)-------17-----|-(17)---[17]---------17-----------|
|----------------------------------|----------------------------------|
|----------------------------------|----------------------------------|
|----------------------------------|----------------------------------|
|----------------------------------|----------------------------------|
|----------------------------------|----------------------------------|
|
|     pm----|      pm-----|    pm---------|      pm----|    pm------|
|  e  s s s s  e   s  s s s  e s s     s  s   e  s s s s  e s s s s e
|----------------------------------|----------------------------------|
|-10----------10------------10-----|----------8-----------8-----------|
|--9-----------9-------------9-----|----------9-----------9-----------|
|--7-----------7-------------7-----|----------7-----------7-----------|
|-----0-0-0-0------0--0-0-0----0-0-|---0--0------0-0-0-0----0-0-3p0---|
|----------------------------------|--------------------------------3-|


 ~~~~~~~~~~~~~~~~~~~~~~~~~~~~~~~~~~~~~~~~~~~~~~~~~~~~~~~~
   q.          e  +q         q        +e     q.        h
|-17----------17-(17)-------17-----|-(17)---17--------17-----------|
|----------------------------------|-------------------------------|
|----------------------------------|-------------------------------|
|----------------------------------|-------------------------------|
|----------------------------------|-------------------------------|
|----------------------------------|-------------------------------|
|
|     pm----|      pm-----|    pm---------|     pm|    pm|   pm|
|  e  s s s s  e   s  s s s  e s s     s  s  e  s s e  s s e s s e
|----------------------------------|-------------------------------|
|--8-----------8-------------8-----|---------6------6------------6-|
|--7-----------7-------------7-----|---------5------4------4-----4-|
|--5-----------5-------------5-----|---------3------5------5-------|
|-----0-0-0-0------0--0-0-0----0-0-|---0--0-----0-0----0-0---0-0---|
|----------------------------------|-------------------------------|


  gtr i
     pm----|    pm----|    pm------|             pm|
   e s s s s  e s s s s  e s s   s s e s s s s e s s s s e
|------------------------------|---------------------------|
|-10---------10---------10-----|-----8---------8-----------|
|--9----------9----------9-----|-----9---------9-----------|
|--7----------7----------7-----|-----7---------7-----------|
|----0-0-0-0----0-0-0-0----0-0-|-0-0---0-0-0-0---0-0-5p0---|
|------------------------------|-------------------------3-|


                                d.s. al coda
    pm----|   pm----|   pm|
  E s s s s E s s s s E s s   E E E E E E E E
|---------------------------|-----------------||
|-8---------8---------8-----|-----------------||
|-7---------7---------7-----|-----------------||
|-5---------5---------5-----|-----------------||
|---0-0-0-0---0-0-0-0---0-0-|-1-0-1-3-1-0-----||
|---------------------------|-------------3-1-||


  &
     pm|
  q  E E E E E E   +E  s s s s s s s s E E E
|----------------|---------------------------|
|----------------|---------------------------|
|-2------5-7---4-|-(4)-----4-4-----5s7p5-4---|
|-2------5-7---5-|-(5)-5-5-----5-5-----------|
|-0--0-0---------|-----------------3s5p3-2---|
|----------------|-------------------------3-|


                 pm                           pm--|
  E E E E +q   E s s   E E E E +q   E E    q  E s s E E E E
|-------0-(0)--0-----|-------0-(0)--0----|------------------|
|-------0-(0)--1-----|-------0-(0)--0----|----------------3-|
|-4s2---2-(2)--2-----|-2-4---4-(4)--4-x\-|-2--------5-7---4-|
|-5s3---3-(3)--3-----|-3-2---2-(2)--2-x\-|-2--------5-7---5-|
|----------------0-0-|-------2-(2)--2-x\-|-0--0-0-0---------|
|--------------------|-------0-(0)--0----|------------------|


      pm------------------------|                  pm
  +e  s s s s s s s s s s s s s s   e e e e +q   e s s   e e e e e e e e
|---------------------------------|-------0-(0)--0-----|-------0---0---0--||
|-(3)-----------------------------|-------0-(0)--1-----|-------0---0---0--||
|-(4)-----4-4-----7-7-5-5-4-4-----|-4s2---2-(2)--2-----|-2-4---4---4---4--||
|-(5)-5-5-----5-5-------------5-5-|-5s3---3-(3)--3-----|-3-2---2---2---2--||
|---------------------------------|----------------0-0-|-------2---2---2--||
|---------------------------------|--------------------|-------0---0---0--||


   outro - guitar solo
    gtr ii
     s  s  s  s  s  s  s  s  s  s  s  s  s  s  s  s
||--------------------------------------------------|
||o-13p12----12-13p12-13p12----12-13p12-13p12----12-|
||--------14----------------14----------------14----|
||--------------------------------------------------|
||o-------------------------------------------------|
||--------------------------------------------------|
|
|   gtr i
|                pm---|
|    q           E     E     E     E     E     E
||--------------------------------------------------|
||o-------------------------------------------------|
||---2-----------------------5-----7-----------4----|
||---2-----------------------5-----5-----------5----|
||o--0-----------0-----0----------------------------|
||--------------------------------------------------|


   s   s  s  s  s  s  s  s  s  s  s  s  s  s  s  s
|--------------------------------------------------|
|-15p=12----12-15p12-15p12----12-15p12-15p12----12-|
|--------12----------------12----------------12----|
|--------------------------------------------------|
|--------------------------------------------------|
|--------------------------------------------------|
|
|
| +e      s  s  s  s  s  s  s  s  e     e     e
|--------------------------------------------------|
|--------------------------------------------------|
|-(4)-----------4--4--------5s=7p=5-----4----------|
|-(5)-----5--5--------5--5-------------------------|
|---------------------------3s=5p=3-----2----------|
|---------------------------------------------3----|

   s  s  s  s  s  s  s  s  s   s  s  s  s  s  s  s
|--------------------------------------------------|
|-17p13----13-17p13-17p13-----13-17p13-17p13----12-|
|--------------------------------------------------|
|-------15----------------15-----------------15----|
|--------------------------------------------------|
|--------------------------------------------------|
|
|                                             pm-|
|  E     E     E     E    +q            E     s  s
|--------------------0----(0)-----------0----------|
|--------------------0----(0)-----------1----------|
|--4s====2-----------2----(2)-----------2----------|
|--5s====3-----------3----(3)-----------3----------|
|---------------------------------------------0--0-|
|--------------------------------------------------|


  1.
   s  s  s  s  s  s  s  s  s   s  s  s  s  s  s   s
|----------------------------------------------------||
|-15p12----12-15p12-15p12-----12-15p12-15p12-----12-o||
|-------12----------------12-----------------12------||
|----------------------------------------------------||
|---------------------------------------------------o||
|----------------------------------------------------||
|
|  E     E     E     E    +q            E     E
|--------------------0----(0)-----------0------------||
|--------------------0----(0)-----------0-----------o||
|--2-----4-----------4----(4)-----------4-----x\-----||
|--3-----2-----------2----(2)-----------2-----x\-----||
|--------------------2----(2)-----------2-----x\----o||
|--------------------0----(0)-----------0------------||


  2.
    s  s  s  s  s  s  s  s  s   s  s  s  s  s  s   s
|--13p12----12----------------------------------------|
|--------15----15-13p12----12--13p12----12------------|
|-----------------------14-----------14----13p12------|
|-------------------------------------------------14--|
|-----------------------------------------------------|
|-----------------------------------------------------|
|
|   E     E     E     E    +q            E     E
|---------------------0----(0)-----------0------------|
|---------------------0----(0)-----------0------------|
|---2-----4-----------4----(4)-----------4-----x\-----|
|---3-----2-----------2----(2)-----------2-----x\-----|
|---------------------2----(2)-----------2-----x\-----|
|---------------------0----(0)-----------0------------|


     s  s  s  s  s  s  s  s  s  s  s  s  s  s  s  s
||--------------------------------------------------|
||o-13p12----12-13p12-13p12----12-13p12-13p12----12-|
||--------14----------------14----------------14----|
||--------------------------------------------------|
||o-------------------------------------------------|
||--------------------------------------------------|
|
|                pm---|
|    q           E     E     E     E     E     E
||--------------------------------------------------|
||o-------------------------------------------------|
||---2-----------------------5-----7-----------4----|
||---2-----------------------5-----5-----------5----|
||o--0-----------0-----0----------------------------|
||--------------------------------------------------|


   s   s  s  s  s  s  s  s  s  s  s  s  s  s  s  s
|--------------------------------------------------|
|-15p=12----12-15p12-15p12----12-15p12-15p12----12-|
|--------12----------------12----------------12----|
|--------------------------------------------------|
|--------------------------------------------------|
|--------------------------------------------------|
|
| +e      s  s  s  s  s  s  e     e     e     e
|--------------------------------------------------|
|--------------------------------------------------|
|-(4)-----------4--4-------/9-----7-----4----------|
|-(5)-----5--5--------5--5-------------------------|
|--------------------------/7-----5-----2----------|
|---------------------------------------------3----|

   s  s  s  s  s  s  s  s  s   s  s  s  s  s  s  s
|--------------------------------------------------|
|-17p13----13-17p13-17p13-----13-17p13-17p13----12-|
|--------------------------------------------------|
|-------15----------------15-----------------15----|
|--------------------------------------------------|
|--------------------------------------------------|
|
|                                             pm|
|  E     E     E     E    +q            E     s  s
|--------------------0----(0)-----------0----------|
|--------------------0----(0)-----------1----------|
|--4s====2-----------2----(2)-----------2----------|
|--5s====3-----------3----(3)-----------3----------|
|---------------------------------------------0--0-|
|--------------------------------------------------|


  1.
   s  s  s  s  s  s  s  s  s   s  s  s  s  s  s   s
|----------------------------------------------------||
|-15p12----12-15p12-15p12-----12-15p12-15p12-----12-o||
|-------12----------------12-----------------12------||
|----------------------------------------------------||
|---------------------------------------------------o||
|----------------------------------------------------||
|
|  E     E     E     E    +q            E     E
|--------------------0----(0)-----------0------------||
|--------------------0----(0)-----------0-----------o||
|--2-----4-----------4----(4)-----------4-----x\-----||
|--3-----2-----------2----(2)-----------2-----x\-----||
|--------------------2----(2)-----------2-----x\----o||
|--------------------0----(0)-----------0------------||


  2.
                                                      ~~~
   s  s  s  s  s  s  s  s  s   s  s  s  s  s  s  s    q   q  h
|-13p12----12--------------------------------------|--------------*|
|-------15----15-13p12----12--13p12----12----------|--------------*|
|----------------------14-----------14----13p12----|-14\----------*|
|-----------------------------------------------14-|--------------*|
|--------------------------------------------------|--------------*|
|--------------------------------------------------|--------------*|
|
|  E     E     E     E    +q            E     E       q   q  H
|--------------------0----(0)-----------0----------|--------------*|
|--------------------0----(0)-----------0----------|--------------*|
|--2-----4-----------4----(4)-----------4----------|--------------*|
|--3-----2-----------2----(2)-----------2-----5----|--7-----------*|
|--------------------2----(2)-----------2-----5----|--7-----------*|
|--------------------0----(0)-----------0-----3----|--5-----------*|

18.MAMA,I'M COMING HOME

Intro riff. (also played when Ozzy starts singing)

|-12------------0-----0-----0-----0-----0-----0-----0-----0------|
|----12-----------0-----0-----0-----0-----0-----0-----0-----0----|
|-------13-11-9-----8-----6-----4-----2-----1--------------------|
|-------------------------------------------------4-----2--------|
|----------------------------------------------------------------|
|----------------------------------------------------------------|


  
|-----0-----0-----0-----0-----0-------0---0------|
|-------0-----0-----0-----0-----0-------0---0----|
|-1S2-----2-----1-----1-----2-----2S4------------|
|------------------------------------------------|
|------------------------------------------------|
|------------------------------------------------|


Riff before the solo.

|-3-0---5-----0-----3-2-0---0-2-4-0-----3-0---5-0---0-0--------|
|-----0---0-----0---------3---------0-------0-----0-----0------|
|-----------0-----1-------------------1-------------------1----|
|--------------------------------------------------------------|
|--------------------------------------------------------------|
|--------------------------------------------------------------|

SOLO:
|-------------------------------------------------------------------------------------------------|
|----------------------12S14-12-10h12-9----------------------12S14-12-10-12-9---------------------|
|------9----9-11b12-13-----------------------9----9-11b12-13-----------------------9----9-11-9-11-|
|-9h11---11-----------------------------9h11---11-----------------------------9h11---11-----------|
|-------------------------------------------------------------------------------------------------|
|-------------------------------------------------------------------------------------------------|



|-14s16--14s16-14-12-14s16-12-14-14--16-17-19b19.5-------|
|--------------------------------------------------18----|
|--------------------------------------------------------|
|--------------------------------------------------------|
|--------------------------------------------------------|
|--------------------------------------------------------|

19.CRAZY TRAIN

Riff 1
|--------------------------------------------------------------------|
|--------------------------------------------------------------------|
|--------------------------------------------------------------------|
|---------------------------------7-7--9-9------------->-------------|X2
|--4-4-------7-7---2-2--4-4-------5-5--7-7------------->-------------|
|--2-2-------5-5---0-0--2-2---------------------------->-------------|
      _ _ _                _ _ _        ((>)After The Riff Two Times) 

Riff 2
|--------------------------------------------------------------------|
|--------------------------------------------------------------------|
|--------------------------------------------------------------------|
|--------------------------------------------------------------------|X3
|-----4---5---4---2-------2------------------------------------------|
|-2-2---2---2---2---5-4-5---5-4-0------------------------------------|


|-------------------------------------|
|-------------------------------------|
|-------------------------------------|
|------------------7----9-------------|X1
|-----4---5---4----5----7-------------|
|-2-2---2---2-------------------------|
               _ _  _ _   _ _
            | 
Riff 3  (This Is \|/ The Central Riff) 
|-----------------------------|---|----------|----------------------|
|-----5-----5-----3-----2-----|---|----------|----------------------|
|-----6-----4-----2-----2-----|X10|----------|-----4h2h0------------|
|-----7-----6-----4-----2-----|---|----2-----|----------4h2h0-------|
|-0-0---0-0---0-0---0-0-------|---|----0-----|---------------4h2h0--|
|-----------------------------|---|--3-------|----------------------|
 P.M.                     _ _    
(The Zero Is In Palm Muted)  

Riff 4               
|---------------------------------------8#^--|-------------------------------------|
|--------------------------------------------|-------------------------------------|
|--------------------------------------------|-------------------------------------|
|--------------------------------------------|-----------------------7-----9---->--|
|--4--0--4--4-4--4---6--7--6--4--0--4--6-----|--4--0--4--4#4#--4--6--5-----7---->--|
|--2--0--2--2#2#-2---4--5--4--2--0--2--4-----|--2--0--2--2#2#--2--4------------->--|
                                                                      _ _ _
Back to Riff 3

I Know A Bit Of This ***ing Hard Solo
(Tapping)
|---------------|----------------|     
|--14-7h10------|-15-7h10--------|
|-------------X8|----------------|X8
|--T------------|-T--------------|
|---------------|----------------|
|---------------|----------------|

20.BLACK SABBATH

Don't Know

21.CHANGES

Don't Know
Comments