Ozzy Osbourne - Lemurs Chords & Tabs

 

Lemurs Chords & Tabs

Ozzy Osbourne Chords & Tabs

Version: 1 Type: Tab

Lemurs Tab

feat primus
[ Tab from: http://www.guitartabs.cc/tabs/o/ozzy_osbourne/lemurs_tab.html ]
E------------------------------------------------|-1-2-1-2-1-2-4-5-4-5h--|
B------------------------------------------------|-----------------------|
G------------------------------------------------|-----------------------|
D------------------------------------------------|-----------------------|
A------------------------------------------------|-----------------------|
E1-2-1-2-1-2-1-2-1-2-1-2-1-2-1-2-1-2-1-2-1-2-1s3-|-----------------------|


E------------------------------------------------|-1-2-1-2-1-2-4-5-4-5h--|
B------------------------------------------------|-----------------------|
G------------------------------------------------|-----------------------|
D------------------------------------------------|-----------------------|
A------------------------------------------------|-----------------------|
E1-2-1-2-1-2-1-2-1-2-1-2-1-2-1-2-1-2-1-2-1-2-1s3-|-----------------------|