Ozzy Osbourne - Just Say Ozzy Chords & Tabs

 

Just Say Ozzy Chords & Tabs

Ozzy Osbourne Chords & Tabs

Version: 1 Type: Tab 0 ratings
1 star 2 stars 3 stars 4 stars 5 stars
comments

Just Say Ozzy Tab

   
Band- Ozzy Osbourne
Album- Just Say Ozzy

1.MIRACLE MAN

Eb tuning

Play (Riff) (4X)                   (b)up 1/2 step
 (intro)
|------------5--------------------5---------------|
|------------5--------------------5---------------|
|---------------4---2--1------------4(b)--2-------|
|---------------4---2--2------------4(b)--2-------|
|-------------------------------------------------|
|----2-2-2-2--------------2-2-2-2-----------------|


Riff2 Play 4X                        (hold)  "looking for a Mir-acle
Man
                                                  (first 2 verses)
|--------------------------------|----------|-----------------------------|
|--------------------------------|----------|-----------------------------|
|--------------------------------|----------|-----------------------------|
|--------------------------------|------(4)-|-----------------------------|
|----4--4----------4--2----------|------(2)-|--4-4------------------------|
|----O--2--2-2-2-2-O--O--2-2-2-2-|--2-2-----|--O-2-2-2-2-2-2-2--2--2--2--2|

  "that tells me no lies"
                 {pinch harmonic}   I     don`t  know....from|
|--------------------------------||------7(b)-7--5-----------|
|--------------------------------||------7(b)-7--5-7---------|
|---4------------------------{9}-||----------------7---------|
|---2--4-4-----------------------||---6--------------9-- 11--|
|------2-2-----4--4--------------||---4--------------7----9--|
|----------X-X-O--2-O-2-O-2------||-----------------------9--|

I  don`t know where...been!
|----7(b)-7-5----------------|
|----7(b)-7-5--7-------------|
|--------------7-------------|
|--6---------------9------11-|
|--4---------------7-------9-|

Not our Jimmy sinner...                                    he`s so
obscene
          (6th verse) [let ring]                            {pinch
harm.}
|-------------------------------------------------------------------------|
|-------------------------------------------------------------------------|
|-------------------------------------------------------------------------|
|--6--9--9--8--6--4--6--[6]-----------------------------------------------|
|--4--7--7--6--4--2--4--[4]--5-5-5-5-5-4-4-4-4-4-3-3-3-3-3-2-2-2-2-2------|
|--------------------------------------------------------------------{3~}-|

    Miracle Man Your busted/ Miracle Man.....

|------------5----------------------------------|
|------------5----------------------------------|
|----------------4--2--1-------------4--2--1----|
|----------------4--2--2-------------4--2--2----|
|-----------------------------------------------|
|--2-2-2-2------------------2-2-2-2-------------|


solo:
eb|-----9--14--------9--14-------9--14-------9--14--|
Bb|-12-----------12----------12----------12---------|
Gb|-------------------------------------------------|
Db|-------------------------------------------------|
Ab|-------------------------------------------------|
Eb|-------------------------------------------------|

eb|------12--16-------12--16-------12--16------12--16---|
Bb|--14-----------14-----------14-----------14----------|
Gb|-----------------------------------------------------|
Db|-----------------------------------------------------|
Ab|-----------------------------------------------------|
Eb|-----------------------------------------------------|

eb|------14--17-------14--17-------14--17-------14--17--------|
Bb|--15-----------15-----------15-----------15----------------|
Gb|-----------------------------------------------------------|
Db|-----------------------------------------------------------|
Ab|-----------------------------------------------------------|
Eb|-----------------------------------------------------------|

Ending 1:
eb|--19--14----------17--14-----------19--14----------17--14-----------------|
Bb|----------17--14----------17--14-----------17--14----------17--14---------|
Gb|---------------------------------------------------------------------16^~~|
Db|--------------------------------------------------------------------------|
Ab|--------------------------------------------------------------------------|
Eb|--------------------------------------------------------------------------|
note: This is extremely hard and extremely fast.

Ending 2:
eb|---------------------------------------------------------------|
Bb|---17~-------17~-----------------------------------------------|
Gb|-------16~--------14~------------------------------------------|
Db|---------------------------------------------------------------|
Ab|---------------------------------------------------------------|
Eb|---------------------------------------------------------------|
   Vibrato the hell out of these notes

("rock bends") Its hard to show the rhythm for the bend, but listen
to the CD and figure it.
eb|---------------------------------------------------------------|
Bb|--2------------------------------------------------------------|
Gb|--4^--4-4-4-4-4-----7^-slide-/21-------------------------------|
Db|---------------------------------------------------------------|
Ab|---------------------------------------------------------------|
Eb|---------------------------------------------------------------|
With your picking hand, take your index finger and do a finger tap
on the 7 while you bend the 2/4 bend 1/2 step.  After that, slide
your finger up to the 21st fret and bend the 2/4 bend 1 whole step.


     1/2                         1/2
eb|---------------------------------------------------------------|
Bb|---------------------------------------------------------------|
Gb|--11^--11--9--11--9-----------11^--11--9--11--9----------------|
Db|---------------------11--9-----------------------11--9---------|
Ab|---------------------------------------------------------------|
Eb|---------------------------------------------------------------|

              (rock bend, half step)
eb|----------------9----------------------------------------------|
Bb|--7/-8--7/-8----12^--------------------------------------------|
Gb|--8/-9--8/-9---------------------------------------------------|
Db|--7/-8--7/-8---------------------------------------------------|
Ab|---------------------------------------------------------------|
Eb|---------------------------------------------------------------|


Rock bends...............      Vibrato the hell out of these notes!
eb|---------------------------------------------------------------|
Bb|--2--4--5--7--9---10--12---------------------------------------|
Gb|--4--6--7--9--11--12--14-----21~~~~21~~~~21~~~~~21~~~~~~-------|
Db|---------------------------------------------------------------|
Ab|---------------------------------------------------------------|
Eb|---------------------------------------------------------------|

2.BLOODBATH IN PARADISE

Tune down 1/2 step: Eb Ab Db Gb Bb Eb

                           use pedal wah
       slide    with hammer on and pull off
E ----------------------------------------------------------------------|
B ----------------------------------------------------------------------|
G -------/14--po-ho-po-ho-po-ho-po-----------5-4--------repeat-3x-------|
D --2-2------14-13-14-13-14-13-14-13--5-5-/7----7-6~--------------------|
A --0-0-------------------------------3-3-------------------------------|
E ----------------------------------------------------------------------|
[ Tab from: http://www.guitartabs.cc/tabs/o/ozzy_osbourne/just_say_ozzy_tab.html ]
E ----------------------------------------------------------------------|
B ----------------------------------------------------------------------|
G -------/14--po-ho-po-ho-po-ho-po----/13-------------------------------|
D --2-2------14-13-14-13-14-13-14-13------13-12~~~----------------------|
A --0-0-----------------------------------------------------------------|
E ----------------------------------------------------------------------|
                                bend and release
E ---------------------------------------------------------------------  }
B ------------------ho--ho---------------------------------------------  }
G --2-----4----5----4-5-4-5--2-----7^-7-5---0-1-------repeat-3x--------  }
D --2-----4----5----4-5-4-5--2-----7^-7-5---0-1------------------------  }
A ----000---00---00------------000-------------------------------------  }
E ----------------------------------------x----------------------------  }  2x
                           harmonic                         end         }
E ---------------------------------------------------------/------------ }
B -------------------------------------------------ho--ho--/---12-12-12- }
G --7-7-7-7-7-7--5-5-5-5-5-5-------2-----4----5----4-5-4-5-/---12-12-12- }
D --7-7-7-7-7-7--5-5-5-5-5-5-------2-----4----5----4-5-4-5-/------------ }
A --5-5-5-5-5-5--3-3-3-3-3-3---------000---00---00---------/------------ }
E ----------------------------3~---------------------------/-00--------- }
    Prechorus
E -----------------------------------------------------------------------|
B --po------po------po--------po------po------po-------------------------|
G --5-4-----7-5-----5-4---7~--5-4-----7-5-----5-4------------------------|
D --5-4-7-7-7-5-7-7-5-4-7-7~--5-4-7-7-7-5-7-7-5-4-7-5~-------------------|
A ------7-7-----7-7-----7---------7-7-----7-7-----7-5~-------------------|
E -----------------------------------------------------------------------|
                                      0.5
E -----------------------------------------------------------------------|
B --po------po------po---------------------------------------------------|
G --5-4-----7-5-----5-4---7~--5------------------------------------------|
D --5-4-7-7-7-5-7-7-5-4-7-7~--5------------------------------------------|
A ------7-7-----7-7-----7------------------------------------------------|
E ------------------------------000000--3^-------------------------------|
    Chorus                                  harmonic
E ----------------------------------3----3-----3~------------------------|
B ------------------------------------3----3-----------------------------|
G -------5~-----7~-----5~-----7~--------0----0---------------------------|
D -------5~-----7~-----5~-----7~-----------------------------------------|
A --0000---0000---0000---0000-----3---------------5-3-2-3-2--------------|
E ----------------------------------------------------------5-3----------|
                                             harmonic
E -----------------------------------------------------------------------|
B -----------------------------------------------------------------------|
G -------5~----7~-----5~-----7~-5---------7^-5-7^------------------------|
D -------5~----7~-----5~-----7~-5---------7^-5-7^------------------------|
A --0000---0000--0000--0000----------------------------------------------|
E ---------------------------------000000--------------------------------|


 On solo
E -----------------------------------------------------------------------|
B -----------------------------------------------------------------------|
G -----------------------------------------------------------------------|
D ------------------------------5-7--------------------------------------|
A --------5^5-3~------5^5~------3-5-7------------------------------------|
E --5-3-5-------5-3-5-----5-3-5-----5-5-5-5-5-5-5------------------------|

E -----------------------------------------------------------------------|
B -----------------------------------------------------------------------|
G -----------------------------------------------------------------------|
D ------------------------------7-9--------------------------------------|
A --------7^7-5~------7^7~------5-7-9------------------------------------|
E --7-5-7-------7-5-7-----7-5-7-----7-7-7-7-7-7-7------------------------|
     Solo                                              H     H   H    H
E ------------------------------------------------------------------------|
B --5-5---8-8---10-10--------5-5--8--8---10-10----------9~----9~--8~---9~-|
G --7^7^~10^10^~12^12^~--\17-7^7^~10^10^~12^12^~-/7-----------------------|
D -----------------------\17---------------------/7-9999-9999-9999-9999---|
A ------------------------------------------------------------------------|
E ------------------------------------------------------------------------|

E ------------------------------7-----7-----7-----7------15^15-15-14-13--|
B --12--14--15--17--19------12^---12^---12^---12^---12^------------------|
G --14^-16^-17^-19^-21^-16~----------------------------------------------|
D -----------------------------------------------------------------------|
A -----------------------------------------------------------------------|
E -----------------------------------------------------------------------|
   1.5  T      T      T      T      T      T      T      1.5
E -----------po----po-----po-----po-----po-----po-----po-----------------|
B --15^~-10-5-3-10-5-3-10-5-3-10-5-3-10-5-3-10-5-3-12-5-3-17^~-----------|
G -----------------------------------------------------------------------|
D -------------------------------------------------------------/16-------|
A -----------------------------------------------------------------------|
E -----------------------------------------------------------------------|

3.SHOT IN THE DARK

Intro 2 times
with Distortion
e[-----------18-18b20-18~~~~--18-20-18--22b-------------|
B[------18----------------------------------------------|
G[-15---------------------------------------------------|
D[------------------------------------------------------|
A[------------------------------------------------------|
E[------------------------------------------------------|

Intro part 2, 2 times
e[------------------------------------------------------|
B[------------------------------------------------------|
G[--------6-----5---6-5---------------------------------|
D[-xx-----6-----5---6-5---------------------------------|
A[-xx-----4-xxx-3---4-3---------------------------------|
E[----0-0---------------(4)-----------------------------|
    PM...

Verse
Clean
e[------------------------------------------------------|
B[-------1------1---------------------------------------|
G[-----3------3---3--------------3-------3--------------|
D[---3--------------3---3------4-------4---4------------|
A[-1--------1---------1------4-------4-------4----------|
E[-------------------------2-------2--------------------|

e[-------1------1-----------------------------------------|
B[------------1----------------4-------4------------------|
G[-----3----3-----3---------------------------------------|
D[---3--------------3--------4-------4---4----------------|
A[-1------1-----------1----4-------4-------4--------------|
E[-----------------------2-------2------------------------|

Pre-Chorus
Distortion
e[------------------------------------------------------|
B[------------------------------------------------------|
G[-5-----6-8----5-----6-8---6-5----6-5------------------|
D[-5-----6-8----5-----6-8---6-5----6-5------------------|
A[-3-----4-6----3-----4-6---4-3----4-3------------------|
E[------------------------------------------------------|

e[------------------------------------------------------|
B[------------------------------------------------------|
G[-5-----6-8----5-----6-8-------------------------------|
D[-5-----6-8----5-----6-8------3------------------------|
A[-3-----4-6----3-----4-6------3------------------------|
E[-----------------------------1------------------------|

Chorus
Distortion
e[------------------------------------------------------|
B[------------------------------------------------------|
G[-3-----------------6---5------------------------------|
D[-3-----------------6---5--6-(4)-----------------------|
A[-1-----------------4---3--6-(4)-----------------------|
E[--------------------------4-(2)-----------------------|

Intro Part 2

Verse

Chorus

Interlude
e[------------------------------------------------------|
B[------------------------------------------------------|
G[-6---13r11--6-10b11r10~~~-4---13r11--6-10b11r10~~~----|
D[-6------------------------4---------------------------|
A[-4------------------------2---------------------------|
E[------------------------------------------------------|

GUITAR SOLO
e[------------------------------------------------------|
B[-11p9-11~~~~-9b11-9-----------------------------------|
G[-------------------10p8---10p8---10p8----10~~~~~------|
D[-----------------------8p6----8p6----8p6--------------|
A[------------------------------------------------------|
E[------------------------------------------------------|

e[------------------------------------------------------|
B[------------------------------------------------------|
G[-10-8------------8------------------------------------|
D[------8-6----6-8---6br--------------------------------|
A[------------------------11p8-11p8----11-13-14---------|
E[------------------------------------------------------|

e[------------------------------------------------------|
B[-11----------13------14------16------18~~~~~----------|
G[------------------------------------------------------|
D[------------------------------------------------------|
A[------------------------------------------------------|
E[------------------------------------------------------|
  TR..............................

4.TATTOOED DANCER

Tune down 1/2 step: Eb Ab Db Gb Bb Eb

Main Riff:
|-----/---|-------------------------------------------------------|
|----/----|-------------------------------------------------------|
|---/-----|-------------------------------------------------------|
|--/------|------------------8ph/7--------------------------------|
|-/scrape-|-7-7--87667--5-7--6ph/5--7-7--87665-5-7-7--0656--------|
|/--------|-5-5---------3-5---------5-5--------3-5-5--------------|

Secondary Riff:

|----------------------------------------|
|----------------------------------------|
|--7-9-10--7-9-10--7-9-10--7-9-10-------.|
|----------------------------------5-5--.|
|----------------------------------3-3---|
|----------------------------------------|

Bridge:                 X4-----------------------|
|-------------------/--|-------------------------|
|------------------/---|-----5-----7-----8-7-----|
|-----------------/----|-----5-----7-----8-7-----|
|--7-10-9-12-12--/-----|-----5-----7-----8-7-----|
|--5-8--7-10-10-/scrape|-7-7---7-7---7-7---------|
|----------------------|-5-5---5-5---5-5---------|

Interlude:
|--------------------------------------------------|
|--------------------------------------------------|
|-------------------------------------------------.|
|-------------------5-3--5ph-3-5-3-5-3--7--3------.|
|-5ph--3-5-3-5-3-5--3-1--3ph-1-3-1-3-1--5--1--5----|
|-3ph--1-3-1-3-1-3----------------------------3----|

|--------------------------------------------------|
|--------------------------------------------------|
|-5ph---5---5--8--7/8\7/8\7/8\7--------------------|
|-3ph-0-3-0-3--6--5/6\5/6\5/6\5--5-3-5-3-5-3-5-3---|
|--------------------------------3-1-3-1-3-1-5-1-5-|
|------------------------------------------------3-|

|--------------------------------------------------------------------|
|--------------------------------------------------------------------|
|--------------------------------------------------------------------|
|--------------------------------------------------------------------|
|-2-3----------------------------------------------------------------|
|-0-1-1-111-111-111-111-111-111-111-111-111-111-111-111 etc etc etc--|

5.SWEET LEAF

Don't Know

6.WAR PIGS

Don't Know
Comments