Ozzy Osbourne - I Just Want You Chords & Tabs

 

I Just Want You Chords & Tabs

Ozzy Osbourne Chords & Tabs

Version: 1 Type: Tab 0 ratings
1 star 2 stars 3 stars 4 stars 5 stars
comments

I Just Want You Tab

I Just Want You
Ozzy - Ozzmosis

|----------------|---0-------------|
|--3-----2-------|-----0---------3-|
|----4-----2-----|-------0-----4---|This is the main
|------4-----2---|-----------4-----|progression, just
|2---------------|---------2-------|play it over and over
|----------------|-0---------------|

"I don't ask much, i just want you..."
|-0---------|-------------------------------------------|
|-0----0-3--|-------------------------------------------|
|-0---------|-4--4----2-2--2----------------------------|
|-2---------|-4--4----2-2--2-----2---2------------------|
|-2---------|-2--2----0-0--0-----2---2-----4^---~~~~-0--|
|-0---------|-------3^-------2^--0---0---0--------------|

"I'm sick and tired of being sick and .."
|---0---0---0---0-|---0---0---0---0-|---0---0---0---0-|---0---0---0---0-|
|---0---0---0---0-|---0---0---0---0-|---0---0---0---0-|---0---0---0---0-|
|-------------2---|-4---6---7---9---|-11--9---7---6---|-7---6---4---2---|
|-2---4---5-------|-----------------|-----------------|-----------------|
|-----------------|-----------------|-----------------|-----------------|
|-----------------|-----------------|-----------------|-----------------|

SOLO:
|---------------------|------------------------------|------
|---------------------|---10----15/19^-19-17---------|------
|------------------7~-|/11---/16-------------19^--16-|------
|-------------7/9~----|------------------------------|------
|------5-7~/9---------|------------------------------|------
|-5h7~----------------|------------------------------|------

|-------------------------|--------------------------------------|
|-17^-17^-17^-17^--15-----|-17^-^-^-^-^-^17-15----17-15-17^-15---|
|---------------------16~-|--------------------16-------------16-|
|-------------------------|--------------------------------------|
|-------------------------|--------------------------------------|
|-------------------------|--------------------------------------|

|--------------------------|-------7----7-------------|-----
|--------------------------|----10--------------------|-----
|-------7-------9^-^9p7-9^-|-9^-----9^----9~-7--9-7---|-----
|-----7----7-9~------------|------------------------9-|-----
|-7h9----------------------|--------------------------|-----
|--------------------------|--------------------------|-----

|-10^-7-----7----------------|------------------------------
|----------------------------|------------------------------
|-------10----9~--7-9-9p7----|------------------------------
|-------------------------9~-|------------------------------
|----------------------------|------------------------------
|----------------------------|------------------------------
[ Tab from: http://www.guitartabs.cc/tabs/o/ozzy_osbourne/i_just_want_you_tab.html ]
|------7------7------7------7------7----|-7-7-7------7------7------7------7---|
|-7-10---7-10---7-10---7-10---7-10---10-|-------7-10---7-10---7-10---7-10---7-|
|---------------------------------------|-------------------------------------|
|---------------------------------------|-------------------------------------|
|---------------------------------------|-------------------------------------|
|---------------------------------------|-------------------------------------|
|                                       | \\\\\\
|---------------------------------------|--------------------------------------
-\\\\\|
|---------------------------------------|--------------------------------------
------|
|---------------------------------------|--------------------------------------
------|
|---------3/4--4-4--4/5--5-5--5/7--7-7--|-7/9-9-9-9/11-11-11-11/12-12-12-12/14-
14-14-|
|---------xh---x-x--xh---x-x--xh---x-x--|-xh--x-x-xh---x--x---xh----x--x--xh---
-x--x-|
|-0--0-0--1/2--2-2--2/3--3-3--3/5--5-5--|-5/7-7-7-7/9--9--9---9/10-10-10-10/12-
12-12-|

|-10-7----7-------------------------------------------|
|------10---10-7-10-7----7----------------------------|
|---------------------10---10-7-9-7---7---------------|
|-----------------------------------9---9-7-9-7---7---|
|-----------------------------------------------9-----|
|-----------------------------------------------------|
|                                                     |
|-----------------------------------------------------|
|-----------------------------------------------------|
|-----------------------------------------------------|
|-14/16--16-16--16\14--14-14--14\12--12-12\11-11-11---|
|--xh-----x--x---xp-----x--x---xp-----x--x-x--x--x----|
|-12/14--14-14--14\12--12-12--12\10--10-10\9--9--9----|

|-10-7----7-------------------------------------------------|
|------10---10-7-10-7----7----------------------------------|
|---------------------10---10-7-9-7---7---------------------|
|-----------------------------------9---9-7-9-7---7---------|
|-----------------------------------------------9-----------|
|-----------------------------------------------------------|
|                                                           |
|-----------------------------------------------------------|
|-----------------------------------------------------------|
|-----------------------------------------------------------|
|--11\9--9-9--9\7--7-7--7/9--9-9--9-\-8-/-9-----------------|
|-----------------------------------------------------------|
|---9\7--7-7--7\5--5-5--5/7--7-7--7-\-6-/-7-----------------|

|---------------------|--------------------------|-----------------------------
--|
|---------------------|-10^~~-12^~~-13^~~-15^~~--|-17^~~-17-15-----------------
--|
|-2^~~-4^~~-5^~~-7^~~-|--------------------------|-------------14/16-----------
--|
|---------------------|--------------------------|-------------------14-12-----
--|
|---------------------|--------------------------|-------------------------14~~
~-|
|---------------------|--------------------------|-----------------------------
--|

"There are no unachievable goals..."
|------------------|---4---------------|
|---7------6-------|-----4---------7---|
|-----8------6-----|-------4-----8-----|
|-------8------6---|-----------8-------|
|-6----------------|---------6---------|
|------------------|-4-----------------|

|---------------------4--------------------|
|-----6h7-----7p6-------4------------------|
|-----------------6-------4----------------|
|---8-------6---------------3/4----3~~~----|
|-6-------4-----------------xh-----x-------|
|-------------------4-------1/2----1-------| 

Comments