Ozzy Osbourne - Gets Me Through Chords & Tabs

 

Gets Me Through Chords & Tabs

Ozzy Osbourne Chords & Tabs

Version: 6 Type: Tab 0 ratings
1 star 2 stars 3 stars 4 stars 5 stars
comments

Gets Me Through Tab

   
T=tap
b=bend
r=release bend
~=hold note
h=hammer
p=pull off
[ Tab from: http://www.guitartabs.cc/tabs/o/ozzy_osbourne/gets_me_through_tab_ver_6.html ]
e------------------------------------------------------------------------------------------------------
B------------------------------------------------------------------------------------------------------
G-9~~~~~11b 11b 11br 9~~~~~~/14 12 11 11 12-------12b 12br 11 12---------------------------------------
D-------------------------------------------10 10----------------10------------------------------------
A-------------------------------------------------------------------12 11 10 12 11 10------------------
E-------------------------------------------------------------------------------------12 11 10 12 11 10
                            T    T      T    T    T      T    T    T    T      T    T
e-----------------------------------------------------------------------------------------
B-----------------------------------------------------------------------------------------
G-7 (9)~~~~~~~~~~~~~~~~~~~~~11p7 11p7h9 11p7 11p7 11p7h9 11p9 12p7 12p9 12p7h9 12p7 12p7h9
D-----------------------------------------------------------------------------------------
A-----------------------------------------------------------------------------------------
E-----------------------------------------------------------------------------------------
                           T    T    T    T    T      T      T    T
e-----------------------------------------------------------------------
A-----------------------------------------------------------------------
D-7 (9)~~~~~~~~~~~~~~~~~~~~14p9 14p7 14p9 14p9 14p7h9 12p7h9 11p7 10p9p7
G-----------------------------------------------------------------------
B-----------------------------------------------------------------------
E-----------------------------------------------------------------------

e---------------12------15b      15b 15b 15b 15b 15br 12-------------------------------
A-15b~~~~~~~~~~~----15-----------------------------------15b~~ 15r12-------------------
D---------------------x----------------------------------------------14br12 14b--------
G--------------------------------------------------------------------------------------
B--------------------------------------------------------------------------------------
E--------------------------------------------------------------------------------x~~~~~
         T        T        T        T        T
e------7 12p7p6h7 12p7p6h7 12p7p6h7 12p7p6h7 12--------------------------9------------
B--------------------------------------------------------8b~~~~ 5  4  3--12b----------
D---------------------------------------------------7brr------- 7b 6b 5b--------------
G-7brr------------------------------------------7p5-----------------------------------
A-------------------------------------------------------------------------------------
E--------------------------------------------------------------------------- x~~~~~~~~
Comments