Ozzy Osbourne - Gets Me Through Chords & Tabs

 

Gets Me Through Chords & Tabs

Ozzy Osbourne Chords & Tabs

Version: 5 Type: Tab 0 ratings
1 star 2 stars 3 stars 4 stars 5 stars
comments

Gets Me Through Tab

Osbourne Ozzy
Get's Me Through
Down to Earth
Tabbed by Twisted_riffer
any comments or a better version of the solo e-mail me
Twisted_riffer_25@yahoo.com

^=means to bend string but you should know that 
the begining riff for the verse it changes a little
e|--------------------------|
B|--------------------------|
G|-------^------------------|
D|-------^-----------0h3----|
A|------4^-------0h3--------|you can figure out the rhythm
E|0-0-0-2^------------------|

VERSE ALMOST SAME RHYTHEM AS INTRO JUST A LITTLE DIFFERENCE IF YOU LISTEN CLOSE.......
e|---------------------|
B|---------------------|
G|---------------------|
D|-2-2--2--4--2--2--4--|
A|-2-2--2--4--2--2--4--|
E|-0-0--0--2--0--0--2--|
Bridge
e|----------------------------------------------|--LAST TIME
B|----------------------------------------------|------------
G|9----11-12--9---11-12------12--11-----12--11--|------------
D|-----------------------10----------10---------|------------
A|7----9--10--7---9--10------10--9------10--9---|------------
E|-----------------------8-----------8----------|8888--101010

Solo
e|--------------------------------------
B|--------------------------------------
G|9~~~~-11^(12)11^(12)-11^(12)r11--9~~~~
D|--------------------------------------
A|--------------------------------------
E|--------------------------------------
[ Tab from: http://www.guitartabs.cc/tabs/o/ozzy_osbourne/gets_me_through_tab_ver_5.html ]
e|------------------------------------------------------------------
B|------------------------------------------------------------------
G|14^(16)r14-14--12--11-12-------12^(14)r12---12^(14)r12-12--11-12--
D|-------------------------10~------------------------------------10~
A|------------------------------------------------------------------
E|------------------------------------------------------------------
					TRILLS(USE SIDE OF PICK)
e|------------------------------------------------------------------------
B|------------------------------------------------------------------------
G|-----------------------------------9(11)-9(12)-9(14)---9(11)--9(16)-9(14)
D|12-10-9--12-10-9--------------------------------------------------------
A|-----------------12-10-9------------------------------------------------
E|-------------------------12-10-9----------------------------------------

e|----------------15^17-15^17-15-15^17-15-15^17-15-15^17--
B|15^17--15^17p12-------------------------------------------
G|-----------------------------------------------------
D|-----------------------------------------------------
A|---------------------------------------------------------
E|-------------------------------------------------------

e|12------12-------------------------------------------
B|--15^17----15-12------------------------------------------
G|-----------------14^16r14p12--------------------------------
D|-----------------------------14--------------------
A|-----------------------------------------------
E|-------------------------------------------------
			Hella fast
e|--------------------------------------------------------
B|--------------------------------------------------------
G|2^4(hold)--\------1519--1519--1519--1519--1519--1519----
D|----------------16----16----16----16----16----16----16--
A|--------------------------------------------------------
E|--------------------------------------------------------
			Unison bends
e|-----------------------------9--------------------
B|----------------5---4---3----12^------------------
G|2^4(hold)--7^9--7^9-6^8-5^7-----------------------
D|--------------------------------------------------
A|--------------------------------------------------
E|--------------------------------------------------

That's it except during the chorus in the last part he plays this once

e|-------------------------------------------------
B|-------------------------------------------------
G|4---7----------------------------------------------
D|4---7----------------------------------------------
A|2---5--------------------------------------------
E|-------------------------------------------------
Comments