Ozzy Osbourne - Facing Hell Chords & Tabs

 

Facing Hell Chords & Tabs

Ozzy Osbourne Chords & Tabs

Version: 2 Type: Tab 0 ratings
1 star 2 stars 3 stars 4 stars 5 stars
comments

Facing Hell Tab

Ozsy Osbourne : Facing hell
Tabbed by No where

CHORUS

E----------------------------------------------------------------|
B----------------------------------------------------------------|
G----------------------------------------------------------------|
D--------------------------------------------------8~------------|
A-0-0--6-5-3-0-3-0-0-6-6-6-6--0-0--6-5-3-0-3-0-0-8---------------|
D-0-0--6-5-3-0-3-0-0----------0-0--6-5-3-0-3-0-0-8---------------|

VERSE
[ Tab from: http://www.guitartabs.cc/tabs/o/ozzy_osbourne/facing_hell_tab_ver_2.html ]
E----------------------------------------------------------------|
B----------------------------------------------------------------|
G----------------------------------------------------------------|
D-------------------5-5-5-5--------------------------------------|
A-0-0-0-0--1-1-1-1--3-3-3-3--------------------------------------|
D-0-0-0-0--1-1-1-1----------0-0-0-0-6-5-3-5----------------------|
---
E----------------------------------------------------------------|
B----------------------------------------------------------------|
G----------------------------------------------------------------|
D-------------------5555555--------------------------------------|
A-00000000-1111111--3333333-0000000------------------------------|
D-00000000-1111111----------0000000------------------------------|

BRIDGE

E----------------------------------------------------------------|
B----------------------------------------------------------------|
G----------------------------------------------------------------|
D----------------------------------------------------------------|
A-0-0-0-6-0-6-0-0-0-5-3------------------------------------------|
D-0-0-0-6-0-6-0-0-0-5-3------------------------------------------|

Sorry but i don't have the solo...............
Comments