Ozzy Osbourne - Dreamer Chords & Tabs

 

Dreamer Chords & Tabs

Ozzy Osbourne Chords & Tabs

Version: 1 Type: Tab 0 ratings
1 star 2 stars 3 stars 4 stars 5 stars
comments

Dreamer Tab

dreamer     tabbed by barrett moore
ozzy osborne
down to earth

lead guitar: zakk wylde

1---------------------------------------------9-11-11^13-14-
2-------------------------------7-9-9b^6~~~-9---------------
3---6-8-8b-r-6-6b^3~~----6-8-8b-----------------------------
4-6--------------------6------------------------------------
5-----------------------------------------------------------
6-----------------------------------------------------------
[ Tab from: http://www.guitartabs.cc/tabs/o/ozzy_osbourne/dreamer_tab.html ]
-16-18-----------------------------------------------------
-------17b--17b-17b----------------------------------------
---------------------16br-14h16b-13~~----------10-11-13-15-
--------------------------------------11-13-15-------------
-----------------------------------------------------------
-----------------------------------------------------------

----------11-12b~~~~~~~-
-11-13-14---------------
------------------------
------------------------
------------------------
------------------------
Comments