Ozzy Osbourne - Dreamer Chords & Tabs

 

Dreamer Chords & Tabs

Ozzy Osbourne Chords & Tabs

Version: 1 Type: Bass Tab

Dreamer Bass Tab

   
     H.           E  E     W                   H.           E  E   
G||---------------------|--6----------------|--L------------L-----|
D||------------------6--|-------------------|------------------6--|
A||---------------------|-------------------|---------------------|
E||---------------------|-------------------|---------------------|


  W                   W                   H.           E  E   
--6----------------|--L----------------|---------------------|
-------------------|-------------------|---------------------|
-------------------|-------------------|--4------------L-----|
-------------------|-------------------|------------------1--|


  H.           E  E     H.           E  S S    H.           S S E   
---------------------|----------------------|----------------------|
---------------------|----------------------|----------------------|
--1------------L-----|--4------------L------|--1-------------------|
------------------4--|------------------1-1-|---------------4-1-4--|


  H.           E  E     H.           E  E     H.           E  E   
---------------------|---------------------|---------------------|
---------------------|--1------------L--1--|---------------------|
---------------------|---------------------|---------------------|
--2------------L--2--|---------------------|--4------------L--4--|


  E  H        Q    E     H        E  E  E  E     H        E  E  E  E   
--3--1--------1----1--|-----------------------|-----------------------|
----------------------|-----------------------|-----------------------|
----------------------|--4--------L--------4--|--1--------L-----------|
----------------------|--------------4--------|--------------1-----4--|


  Q.     S S E  E  E  E     H        S S E.  S E     Q.     S S E  E  E  E   
-------------------------|------------------------|-------------1-----------|
----------------1-----3--|------------------------|----------------4-----3--|
--4------L---4-----------|--1--------L---1--------|-------------------------|
-----------4-------------|-------------1-----1-4--|--2------L-2-------------|


  Q.     S S E  E  E  E     H        E  Q    E     H        Q    Q     
-------------------------|----------------------|--1--------3----1----|
--1------L---1--1-----1--|----------------------|---------------------|
-----------1-------------|----------------------|---------------------|
-------------------------|--4--------L--4----4--|---------------------|


  Q.     S S E  E.  S S S    Q.     S S E  E  Q       Q.     S S S S Q    E   
--------------------------|------------------------|-------------------------|
-------------1------------|------------------------|-------------------------|
--4------L------4-----4---|--1------L---1--1--3----|-------------------------|
-----------4--------4-----|-----------1------------|--1------L-1-1---1----1--|


  Q    S S S S Q    E  E     Q.     S S E  E.  S S S    Q    Q    E  E  E  S S  
-----------1---1----3--1--|--------------------------|-------3----3--5--3--5-3-|
---------1---1------------|-------------1------------|-------------------------|
--------------------------|--4------L------4-----4---|--1----------------------|
--4----L------------------|-----------4--------4-----|-------------------------|


  Q.     S S S S E  E  E     W                   Q.     S S S S E.  S E   
--------------------------|-------------------|--------------------------|
--------------------------|-------------------|--------------------------|
--------------------------|-------------------|--4------L---4---4-----4--|
--1------L-1-1---1--1--1--|--4----------------|-----------4---------4----|


  Q.     S S S S E.  S E     Q.     S S E  E  E  E     Q.     S S S S E.  S E   
--------------------------|-------------------------|--------------------------|
--------------------------|----------------1-----3--|--------------------------|
--1------L---1---1--------|--4------L---4-----------|--1------L---1---1--------|
-----------1---------1-4--|-----------4-------------|-----------1---------1-4--|


  Q.     S S E  E  E  E     Q.     S S S S E  S S E     Q.     S S S S Q    E   
-------------1-----------|---------------------------|-------------------------|
----------------4-----3--|--1------L---1-3-4--1------|-------------------------|
-------------------------|-----------1------------1--|-------------------------|
--2------L-2-------------|---------------------------|--4------L-4-4---4----4--|


  Q    S E  S S S Q.        Q.     S S E  E.  S S S    Q.     S S E  E  Q     
--1----1-1--6-6-5--------|--------------------------|------------------------|
------------------6------|-------------1------------|------------------------|
-------------------------|--4------L------4-----4---|--1------L---1--1--3----|
-------------------------|-----------4--------4-----|-----------1------------|


  Q.     S S S S Q    E     Q    S S S S Q    E  E     Q.     S S E  E.  S S S  
-------------------------|-----------1---1----3--1--|--------------------------|
-------------------------|---------1---1------------|-------------1------------|
-------------------------|--------------------------|--4------L------4-----4---|
--1------L-1-1---1----1--|--4----L------------------|-----------4--------4-----|


  Q    Q    E  E  E  S S    Q.     S S S S E  E  E     Q.     E  E  Q.      
-------3----3--5--3--5-3-|--------------------------|----------------------|
-------------------------|--------------------------|----------------------|
--1----------------------|--------------------------|----------------------|
-------------------------|--1------L-1-1---1--1--1--|--4------4--4--4------|


  Q.     S S E  Q    S S    Q    E  S E.  E  S S E     Q.     S S E  Q    S S  
-------------------------|--------------------------|-------------------------|
--1------L-1----1----1-1-|--------------------------|--1------L-1----1----1-1-|
-------------------------|---------------------3-3--|-------------------------|
-------------------------|--4----4--4-4---4--4------|-------------------------|

[ Tab from: http://www.guitartabs.cc/tabs/o/ozzy_osbourne/dreamer_btab.html ]
  Q    E  S E.  E  S S E     Q.     S S E  Q    S S    Q    E  S E.  E  S S E   
--------------------------|-------------------------|--------------------------|
--------------------------|--1------L-1----1----1-1-|--------------------------|
---------------------3-3--|-------------------------|---------------------3-3--|
--4----4--4-4---4--4------|-------------------------|--4----4--4-4---4--4------|


  Q.     S S E  Q    S S    Q    E  S E.  E  S S E   
-------------------------|--------------------------|
--1------L-1----1----1-1-|--------------------------|
-------------------------|---------------------3-3--|
-------------------------|--4----4--4-4---4--4------|


  Q.     S S S E  E  S S S    Q    Q.     E  S S E     Q.     S S S S E  E  E   
---------------------------|-------3------1--3-1----|--------------------------|
---------------------------|---------------------3--|-----------------3--1-----|
--4------L---4----4----3---|--1---------------------|--4------L---4---------4--|
-----------4---------4-----|------------------------|-----------4---4----------|


  Q.     Q    Q    E     Q.     S S S S E  E  E     Q.     S S S S S E.  S S  
---------3----1-------|--------------------------|---------------------------|
-------------------1--|-----------------1--1-----|---------------------------|
--1-------------------|--4------L---4---------4--|--1------L---1---3-----4---|
----------------------|-----------4---4----------|-----------1---------------|


  H        E  Q    S S    H        E  E  E  E     W                 
-----------------------|-----------------------|-------------------|
-----------------------|-----------------------|-------------------|
-----------------------|-----------1-----3-----|--4----------------|
--1--------1--1----1-1-|--4--------------------|-------------------|


  H.           E  E     H        E  E  E  E     E  E  E  E  E  E  E  E   
---------------------|--6--------6--6--6--6--|--6--6--6--6--6--6--6--6--|
---------------------|-----------------------|--------------------------|
--L------------L--4--|-----------------------|--------------------------|
---------------------|-----------------------|--------------------------|


  Q.     S S S S E.  S E     Q.     S S S S E.  S E     Q.     S S E  E  E  E   
--------------------------|--------------------------|-------------------------|
--------------------------|--------------------------|----------------1-----3--|
--4------L---4---4-----4--|--1------L---1---1--------|--4------L---4-----------|
-----------4---------4----|-----------1---------1-4--|-----------4-------------|


  Q.     S S S S E.  S E     Q.     S S E  E  E  E   
--------------------------|-------------1-----------|
--------------------------|----------------4-----3--|
--1------L---1---1--------|-------------------------|
-----------1---------1-4--|--2------L-2-------------|


  Q.     S S S S E  S S E     Q.     S S S S Q    E   
---------------------------|-------------------------|
--1------L---1-3-4--1------|-------------------------|
-----------1------------1--|-------------------------|
---------------------------|--4------L-4-4---4----4--|


  S S S S S S S S S S S S S S S S    Q.     S S E  E.  S S S  
--6---6---5---5---3---3---3---1---|--------------------------|
----------------------------------|-------------1------------|
----------------------------------|--4------L------4-----4---|
----------------------------------|-----------4--------4-----|


  Q.     S S E  E  Q       Q.     S S S S Q    E     Q    S S S S Q    E  E   
------------------------|-------------------------|-----------1---1----3--1--|
------------------------|-------------------------|---------1---1------------|
--1------L---1--1--3----|-------------------------|--------------------------|
-----------1------------|--1------L-1-1---1----1--|--4----L------------------|


  Q.     S S E  E.  S S S    Q    Q    E  E  E  S S    Q.     S S S S E  E  E   
--------------------------|-------3----3--5--3--5-3-|--------------------------|
-------------1------------|-------------------------|--------------------------|
--4------L------4-----4---|--1----------------------|--------------------------|
-----------4--------4-----|-------------------------|--1------L-1-1---1--1--1--|


  Q.     E  E  Q.        Q.     S S E  E.  S S S    Q.     S S E  E  Q     
----------------------|--------------------------|------------------------|
----------------------|-------------1------------|------------------------|
----------------------|--4------L------4-----4---|--1------L---1--1--3----|
--4------4--4--4------|-----------4--------4-----|-----------1------------|


  Q.     S S S S Q    E     Q    S S S S Q    E  E     Q.     S S E  E.  S S S  
-------------------------|-----------1---1----3--1--|--------------------------|
-------------------------|---------1---1------------|-------------1------------|
-------------------------|--------------------------|--4------L------4-----4---|
--1------L-1-1---1----1--|--4----L------------------|-----------4--------4-----|


  Q    Q    E  E  E  S S    Q.     S S S S E  E  E     Q.     E  E  Q.      
-------3----3--5--3--5-3-|--------------------------|----------------------|
-------------------------|--------------------------|----------------------|
--1----------------------|--------------------------|----------------------|
-------------------------|--1------L-1-1---1--1--1--|--4------4--4--4------|


  W                   H.           E  E     W                 
-------------------|---------------------|--6----------------|
-------------------|---------------------|-------------------|
--4----------------|--L------------L--4--|-------------------|
-------------------|---------------------|-------------------|


  Q    H        Q      
--L------------------||
---------------------||
-------4-------------||
---------------------||




Duration Legend
---------------
W - whole
H - half
Q - quarter
E - 8th
S - 16th
T - 32nd
X - 64th
. - note dotted
|-n-|  - n-tuplets


Tablature Legend
----------------
L - tied note
x - dead note
g - grace note
(n) - ghost note
> - accentuded note
NH - natural harmonic
AH - artificial harmonic
TH - tapped harmonic
SH - semi harmonic
PH - pitch harmonic
h - hammer on
p - pull off
b - bend
br - bendRelease
pb - preBend
pbr - preBendRelease
brb - bendReleaseBend
\n/ - tremolo bar dip
\n - tremolo bar dive
-/n - tremolo bar Release up
/n\ - tremolo bar inverted dip
/n - tremolo bar return
-\n - tremolo bar Release down
S - shift slide
s - legato slide
/ -  slide into from below or out of upwards
\ -  slide into from above or out of downwards
~ - vibrato
W - wide vibrato
tr - trill
TP - tremolo picking
T - tapping
S - slap
P - pop
< - fade in
^ - brush up
v - brush down