Ozzy Osbourne - Down To Earth Chords & Tabs

 

Down To Earth Chords & Tabs

Ozzy Osbourne Chords & Tabs

Version: 1 Type: Tab 0 ratings
1 star 2 stars 3 stars 4 stars 5 stars
comments

Down To Earth Tab

   
Band- Ozzy Osbourne
Album- Down To Earth

1.GETS ME THROUGH

+ = tap

piano arr for gtr.

e-----------------------------------------------------------------|
b----------8-7--------------8-7----------------8------------------|
g-----9--------9-------9--------9---------9------11-9-------------|
d---9---9--------9---9---9--------9----10---10--------10----------|
a-7------7---------7------7---------------------------------------|
e-0----------------------------------8----------------------------|

e-----------------------------------------------------------------|
b------------8-7--------------8-7--------------8-7----------------|
g------9---------9-------9--------9-------9--------9--------------|
d---10---10--------9---9---9--------9---9---9--------9------------|
a--------------------7------7---------7------7--------------------|
e-8--------8------------------------------------------------------|

e--------------------------------12----24-------------------------|
b------------8----------------------11----23----------------------|
g------9-------11-9----9------------------------------------------|
d---10---10---------10---8----8-----------------------------------|
a--------------------------10-------------------------------------|
e-8--------8-----------8------------------------------------------|

Riff A x2

e-----------------------------------------------------------------|
b-----------------------------------------------------------------|
g-----------------------------------------------------------------|
d----------------------------------------------------0h2----------|
a---------4b--------4b---------------4b----------0h2--------------|
e-0-0---0-2b---0--0-2b---0--0-0-0--0-2b---0-0--0------------------|

verses:

e------------------------------------------------------------------|
b------------------------------------------------------------------|
g------------------------------------------------------------------|
d------------------------------------------------------------------|
a-2-2--2-2---2--2-2--2--2-2-2--2-2---2--2-2--2--2-2-2--2---x-x-x-x-|
e-0-0--0-3---0--0-3--0--0-0-0--0-3---0--0-3--0--0-0-0--0-3-x-x-x-x-|

interlude: Riff A

Bridge:

e-----------------------------------------------------------------|
b-5------7--8--5------7--8--------8--7-------8--7-----------------|
g-x------x--x--x------x--x--5-----x--x--5----x--x-----------------|
d-2------4--5--2------4--5--x-----5--4--x----5--4-----------------|
a---------------------------3-----------3-------------------------|
e-----------------------------------------------------------------|

B5       D5

solo: w/ wah

E5vii                                           G5x

e------------------------------------------------------------------|
b------------------------------------------------------------------|
g-9~~~~~~~~~~~~-11b---11b-r11b-9~~~~~~~~~~~~~~-/14~~~~~~~~~-12--11-|
d------------------------------------------------------------------|
a------------------------------------------------------------------|
e------------------------------------------------------------------|

C5                                     G5x

e-----------------------------------------------------------------|
b-----------------------------------------------------------------|
g-11--12--------12b-----rb-11--12---------------------------------|
d--------10~~10-------------------10~~~---------------------------|
a--------------------------------------121110121110---------------|
e--------------------------------------------------121110121110---|

E5vii
             +    +      +    +    +    +    +      +    +
e-----------------------------------------------------------------|
b-----------------------------------------------------------------|
g-797979797~~11p7-11p7h9-11p7-11p7-11p9-12p9-12p7h9-12p7-12p9p7---|
d-----------------------------------------------------------------|
a-----------------------------------------------------------------|
e-----------------------------------------------------------------|

E5 vii       G5x
             +    +    +    +    +      +      +    +
e-----------------------------------------------------------------|
b-----------------------------------------------------------------|
g-797979797~~14p9-14p7-14p9-14p9-14p7h9-12p7h9-11p7-10p9p7--------|
d-----------------------------------------------------------------|
a-----------------------------------------------------------------|
e-----------------------------------------------------------------|

C5                                               B5         D5

e--------------12----15b~~~~~15b-15b-15b-15br-12-------------------|
b--15b~~~~~~~~~~-15------------------------------15b~~15p12--------|
g------------------x---------------------------------------14brp12-|
d------------------------------------------------------------------|
a------------------------------------------------------------------|
e------------------------------------------------------------------|

D5             A5  G#5   G5

e--------------------------7-12p7p6h7-12p7p6h7-12p7p6h7-12--------|
b-----------------------------------------------------------------|
g-14b~~~~~--------------------------------------------------------|
d------------------7b--7br----------------------------------------|
a-----------------------------------------------------------------|
e----------x~~~~~~------------------------------------------------|

A5     G#5    G5           A5    G#5   G5    F#5

e-----------------------------------------------------------------|
b-------------8b~~~~~~~~~--5-----4-----3-----14-------------------|
g------7b--br--------------7b----6b----5b----16b------------------|
d--7p5------------------------------------------------------------|
a-----------------------------------------------------------------|
e-----------------------------------------------------------------|

outro solos: w/ wah

e-----------------------------------------------------------------|
b-----------------------------------------------------------------|
g--------12---------12----------12------12------------------------|
d-x-x--x-12----x--x-12-----x-x--12--x-x-12--x--x-x-x-x-x-x-x-x----|
a-x-x--x-------x--x--------x-x------x-x-----x--x-x-x-x-x-x-x-x----|
e-----------------------------------------------------------------|

e----------------------------------------------12-----------------|
b---------12-15-12---------12-15-12----------12---12-15b~~~~~~----|
g-14b~~~~~---------14b~~~~~---------14b~~~~~----------------------|
d-------------------------------------------------------------x-x-|
a-----------------------------------------------------------------|
e-----------------------------------------------------------------|

begin fading out

e-----------------------------------------------12----15b~~~~~~~~~-|
b---------12-15-12---------12-15-12----------12----12--------------|
g-14b~~~~~---------14b~~~~~---------14b~~~~~~~---------------------|
d------------------------------------------------------------------|
a------------------------------------------------------------------|
e------------------------------------------------------------------|

e------------12-----------------12----------------12----------12--|
b-15b~~~~~~~~--15p12-15b~~~~~rb----15p12-15b~~~~~~--15p12-15b-----|
g-----------------------------------------------------------------|
d-----------------------------------------------------------------|
a-----------------------------------------------------------------|
e-----------------------------------------------------------------|

e----12------------------------------------------------------------|
b-15b--15p12-15b--15p12-15b--15p12-15b--15p12-15b--15p12-15b-15p12-|
g------------------------------------------------------------------|
d------------------------------------------------------------------|
a------------------------------------------------------------------|
e------------------------------------------------------------------|

e------15-12-----15p12-17p12-15p12--------------12----------------|
b-15p12-----15p12------------------15p12-15b~~~~---15p12--12-16---|
g-------------------------------------------------------14--------|
d-----------------------------------------------------------------|
a-----------------------------------------------------------------|
e-----------------------------------------------------------------|

e--------12------12-----12------12-----------------------16-16----|
b-12---12--12--12--12-12--12--12--12-12--------15b~~~p12-15-15----|
g----15------15-------------15----------14brp12-------------------|
d-----------------------------------------------------------------|
a-----------------------------------------------------------------|
e-----------------------------------------------------------------|

2.FACING HELL

Intro (Volume Swell)
----------------------------------------------------------------|
----------------------------------------------------------------|
----------------------------------------------------------------|
-----*----------------------------------------------------------|
----(0)---------------------------------------------------------|
----(0)---------------------------------------------------------|
*=Swell into note using vol. knob

MAIN RIFF (Play Twice):
-----------------------------------------------------------------------------|
-----------------------------------------------------------------------------|
-----------------------------------------------------------------------------|
--0-0--6-5-3-0--0-0--6-0-0----------------0-0--6-5-3-0--0-0--6-0-0-8---------|
--0-0--6-5-3-0--0-0--6-0-0---/6-6-6-6-6---0-0--6-5-3-0--0-0--6-0-0-8-----PH--|
--0-0--6-5-3-0--0-0--6-0-0--sl.-----------0-0--6-5-3-0--0-0--6-0-0-8--6--5~~-|
                P.M    P.M                              P.M    P.M

PRE-VERSE (Play Twice)
||------------------------------------||
||------------------------------------||
||o----------------------------------o||
||o----------------------------------o||
||--0-0-0-0-0-0-0-0-0-0-0-0-0-0-0-0---||
||--0-0-0-0-0-0-0-0-0-0-0-0-0-0-0-0---||

VERSE RIFF (Play Twice)

"You make a promise of protection......"
||----------------------------------------------------||
||----------------------------------------------------||
||o--------------------------------------------------o||
||o-----------------------5-5-5-5--------------------o||
||--0-0-0-0----1-1-1-1----3-3-3-3--------sl.----------||
||--0-0-0-0----1-1-1-1-------------0-0-0-/6--5-3-5-3--||

PRE-CHORUS (Twice)
||----------------------------------------------------------------------------|
||----------------------------------------------------------------------------|
||o-----------------------------------------------------------------------o---|
||o-----------------------------------5-5-5-5-5-5-5-5---------------------o---|
||--0-0-0-0-0-0-0-0--1-1-1-1-1-1-1-1--3-3-3-3-3-3-3-3--0-0-0-0-0-0--*3(5)-----|
||--0-0-0-0-0-0-0-0--1-1-1-1-1-1-1-1-------------------0-0-0-0-0-0------------|
      P.M---------|    P.M.--------|    P.M.--------|    P.M.-----------------|    *trill

1ST CHORUS --> Play Main Riff Twice
2ND PRE-VERSE ---> Play Pre Verse Riff Twice
2ND VERSE ---> Play Verse Riff Twice
2ND CHORUS ---> Play Main Riff Twice

BRIDGE (Play 4 Times)
||---------------------------------||
||---------------------------------||
||o-------------------------------o||
||o-------------------------------o||
||---0-0-0--6--0--6--0-0-0--5--3---||
||---0-0-0--6--0--6--0-0-0--5--3---||
     P.M.-|   P.M    P.M.-|

-------------------GUITAR SOLO (SORRY, NOT TABBED)-----------------------

POST-SOLO DIVE
----------------------------------------------------------------|
----------------------------------------------------------------|
----------------------------------------------------------------|
-----*----------------------------------------------------------|
----(0)---------------------------------------------------------|
----(0)---------------------------------------------------------|
*DIVE DOWN AND BACK AGAIN FROM THIS NOTE USING EITHER HEADSTOCK BEND OR WHAMMY BAR.

3ND VERSE ---> Play Verse Riff Twice
3ND CHORUS ---> Play Main Riff Four Times w/ad lib solo

OUTRO ---> Play Bridge 5 Times w/Fill 1 twice third time, then end with fill 2.

FILL 1
------------------------|
------------------------|
------------------------|
---12--10---------------|
-----------11--10--8----|
------------------------|

FILL 2 (Ending)
---------------------------------------------------|
---------------------------------------------------|
---------------------------------------------------|
--------------------*------------------------------|
---0-0-0--6--0--6--(0)-----------------------------|
---0-0-0--6--0--6--(0)-----------------------------|
*Don't pick, let ring gently in background

3.DREAMER

-> Intro piano/bass:

   play this 2 times (without a plectron):

e|-----3-3-1-1-0-0-----0-0-|
B|-----------------3-3-----|
G|-------0---0---0---0-----|
D|-------------------------|
A|---3---------------3-----|
E|-3-----------------------|


-> piano/bass part:

   (without a plectron or just play each chord once):

        [C]                [Am]
e|-----------------|-----------------|
B|-1---1---1---1---|-1---1---1---1---|
G|-0---0---0---0---|-2---2---2---2---|
D|-2-2-2-2-2-2-2-2-|-2-2-2-2-2-2-2-2-|
A|-3-------------3-|-0-------------0-|
E|-----------------|-----------------|


        [C]                [Am]
e|-----------------|-----------------|
B|-1---1---1---1---|-1---1---1---1---|
G|-0---0---0---0---|-2---2---2---2---|
D|-2-2-2-2-2-2-2-2-|-2-2-2-2-2-2-2-2-|
A|-3-------------3-|-0-------------0-|
E|-----------------|-----------------|


        [F]                [Dm]
e|-----------------|-1---1---1---1---|
B|-1---1---1---1---|-3---3---3---3---|
G|-2---2---2---2---|-2-2-2-2-2-2-2-2-|
D|-3-3-3-3-3-3-3-3-|-0-------------0-|
A|-----------------|-----------------|
E|-1-------------1-|-----------------|


        [G]          [G4]    [G]
e|-3---3---3---3---|-3---3---3---3---|
B|-0---0---0---0---|-1---1---0---0---|
G|-0-0-0-0-0-0-0-0-|-0-0-0-0-0-0-0-0-|
D|-----------------|-----------------|
A|-----------------|-----------------|
E|-3-------------3-|-3-------------3-|

-> Chorus:
   (just normal strumming)

|: C | Am| Em| G :|

|: 0 | 0 | 0 | 3 :|
|: 1 | 1 | 0 | 0 :|
|: 0 | 2 | 0 | 0 :|
|: 2 | 2 | 2 | 0 :|
|: 3 | 0 | 2 | 2 :|
|: x | x | 0 | 3 :|


-> Interlude:

| Dm| G | Dm| G | Dm| G | Dm| G |

| 1 | 3 |
| 3 | 0 |
| 2 | 0 |
| 0 | 0 |
| x | 2 |
| x | 3 |


-> to the Solo:
   (Solo without capo
    Chords with capo)


        [C]                [Am]               [C]
|--------------------|---------------|------------------6-|
|--------------------|---------------|----------4-6-7-9---|
|-----6-8-8b10r8-6-8-|---------------|--------6-----------|
|---6----------------|-6/8-----------|-(8)\-6-------------|
|--------------------|---------------|--------------------|
|--------------------|---------------|--------------------|

        [Am]                     [C]
|--------------------|------------------------18-|
|--------------------|------------16-18-19-21----|
|-8b10v-----8b10r8-6-|-(6)\----18----------------| (it's the same as before
|--------------------|------18-------------------|  but one octave higher)
|--------------------|---------------------------|
|--------------------|---------------------------|

        [Am]                            [Em]
|----------------------------|--------------------------|
|----------------------------|--------------------------|
|----------------------------|-17r15p13-15b17--15b17r15-| release slowly
|-20b22---20b22-20b22--20b22-|--------------------------| to the next note
|----------------------------|--------------------------|
|----------------------------|--------------------------|

        [G]                                       [?]               [?]
|------------------------------------------|-----------------|-----------------|
|---------------------------------13-14-16-|-16b18-----------|-----------------|
|-13---------------------13-15-17----------|-----------------|-----------------|
|---------------13-15-16-------------------|-----------------|-----------------|
|------13-15-16----------------------------|-----------------|-----------------|
|------------------------------------------|-----------------|-----------------|

easier:13h15h16 13h15h16 13h15h17 13h14h16

          just when the solo ends
          you can play:(with capo)         |-----------------|-----------------|
                                           |-1---1---1---1---|-1---1---1---1---|
                                           |-0---0---0---0---|-0---0---0---0---|
                                           |-----------------|-----------------|
                                           |-3---3---1---1---|-0---0-----------|
                                           |-----------------|---------4---4---|

4.NO EASY WAY OUT

intro-verse-clean
-----------------------------------------------------------|
-----------------------------------------------------------|
---0---0--0------------------------------------------------|
--0-0-0-0-0------------------------------------------------|
-3---2----1--x3--------------------------------------------|
-----------------------------------------------------------|

main riff/w/dist.
------------------------------------------------------------|
------------------------------------------------------------|
------------------------------------------------------------|
-3-5-5-----5-5-5-5-8-8-8-x-x-3-5----------------------------|
-3-5-5-----5-5-5-5-8-8-8-x-x-3-5----------------------------|
-1-3-3-----3-3-3-3-6-6-6-x-x-1-3----------------------------|


chorus-w/dist.
-------------------------------------------------------------|
-3-----5-----6----5-------3----5----6----8-------------------|
-2-x-x-4-x-x-5-x-x4-------2-x-x4-x-x5-x-x7----0---0--0-------|
-0-x-x-0-x-x-0-x-x0-------0-x-x0-x-x0-x-x0---0-0-0-0-0-------|
-0-x-x-0-x-x-0-x-x0-x-x-x-0-x-x0-x-x0-x-x0--3---2----1-------|
--------------------x-x-x------------------------------------|

interlude-clean

-------------------------------------------------------------|
---0---0---0---0---0---0---0---------------------------------|
--0-0-0-0-0-0-0-0-0-0-0-0-0-0--------------------------------|
-2---2---1---1---2---0---1----etc----------------------------|
-------------------------------------------------------------|
-------------------------------------------------------------|

5.THAT I NEVER HAD

intro:

feedback  Riff 1                                             end
eb-(12)-||---------------------------------|------|-------------||
Bb------||---------------------------------|------|-------------||
Gb------||-2^0---------2^0---------2^0-----|-O-/--|-2------0----||
Db------||-2^0---------2^0---------2^0-----|--/-O-|-2------0----||
Ab------||---------------------------------|------|-0------x----||
Db------||-----2-0-2-0-----2-0-2-0-----2-0-|------|--------5----||

play riff 1 once more
Use 1st bar of Riff 1 to play along verse

  Riff 2 (chorus)
eb--------------|---------------------------------|---|---|---|---|
Bb--------------|---------------------------------|---|---|---|---|
Gb--------------|-2^0---------2^0---------2^0-----|-o-//--|-o-//--|
Db-5--5-5--5-5--|-2^0---------2^0---------2^0-----|--//-o-|--//-o-|
Ab-3--3-3--3-4--|---------------------------------|---|---|---|---|
Db--------------|-----2-0-2-0-----2-0-2-0-----2-0-|---|---|---|---|

          end
eb------------|
Bb------------|
Gb-2----0-----|
Db-2----0-----|
Ab-0----x-----|
Db------5-----|

play 1st bar of Riff 1 then play Fill 1

Fill 1
-----------------------------||
-----------------------------||
-2^0-------------------------||
-2^0-------------------------||
-----------------------------||
-----2-0-2-0-2-0-<2>~~~~~~~--||


Interlude:
   Riff 3                  x2  two guitars for one
eb--------------|-------------|-----0-------0-------0-------0---|
Bb--------------|-------------|-------0-------0-------0-------0-|
Gb--------------|-------------|---4-------2-------0-------2-----|
Db-5-----3------|-2-----3-----|-5-------3-------2-------3-------|
Ab-5-----3------|-2-----3-----|---------------------------------|
Db-5-----3------|-2-----3-----|-5-------3-------2-------3-------|

                                end
eb-----0-------0-------0-------0---|----------------------------|
Bb-------0-------0-------0-------0-|----------------------------|
Gb---4-------2-------0-------0-----|----------------------------|
Db-5-------3-------2-------1-------|----------------------------|
Ab---------------------------------|----------------------------|
Db-5-------3-------2-------1-------|--0-------------------------|

   Riff 4
eb--------------------------------------------------------------|
Bb--------------------------------------------------------------|
Gb-----------9/10\9~~--13/14\13~~--16/17\16~~\10----------------|
Db--------------------------------------------------------------|
Ab-2-2-0-2---7/ 8\7~~--11/12\11~~--14/15\14~~-\8----------------|
Db-2-2-0-2------------------------------------------------------|

                     sweep
eb----------------------12----------12--1515--12------------------------------|
Bb----------20/\/\/\---12--12-15-12---12----12--121512------------------------|
Gb--------------------12------------------------------12/\/\/\----------------|
Db-------------------14-------------------------------------------------------|
Ab-2-2-0-2--------------------------------------------------------------------|
Db-2-2-0-2--------------------------------------------------------------------|
[ Tab from: http://www.guitartabs.cc/tabs/o/ozzy_osbourne/down_to_earth_tab.html ]
eb--------------------------------------------------------------|
Bb--------------------------------------------------------------|
Gb-----------9/10\9~~--13/14\13~~--16/17\16~~\10----------------|
Db--------------------------------------------------------------|
Ab-2-2-0-2---7/ 8\7~~--11/12\11~~--14/15\14~~-\8----------------|
Db-2-2-0-2---2\-------------------------------------------------|
             *second guitar plays this chord

                        ** there are many guitars here
eb------------------------/\------------------------------------|
Bb---------------------17/  --|\--------------------------------|
Gb-----------14/^^\-12--------2  \------------------------------|
Db---------------------14~~~~-----------------------------------|
Ab-2-2-0-2------------------------------------------------------|
Db-2-2-0-2---2\-------------------------------------------------|

 Solo
 w/riff 2 (last time play C then A#)

eb----/\------/\--------------/\-|--12--------------------------------/\-------|
Bb-15/  -x-15/ --15^12-----14/  -|----1512-----------------/\-15/\-17//\(17)~~-|
Gb--------------------14^12------|--------14/\14/\1215--14/  ------17/  -------|
Db-------------------------------|--------------------17-----------------------|
Ab-------------------------------|---------------------------------------------|
Db-------------------------------|---------------------------------------------|

                      sweep
eb-----------------------12--------12----1512----171512--------12---------------|
Bb----------------------12-1512--12--1512----1512------1512--12--1512-----------|
Gb---12151412--121514--12------15--------------------------14--------1412--12/\-|
Db/14--------14-------14-------------------------------------------------14-----|
Ab------------------------------------------------------------------------------|
Db------------------------------------------------------------------------------|

             /\
eb----/\----/  ------------------------|
Bb-15/  -15/    -----------------------|
Gb---------------14^12^14--------------|
Db------------------------14~~---------|
Ab-------------------------------------|
Db-------------------------------------|

after solo play riff 1 w/fill 3 at the end
  Fill 3       * natural harms
eb------------<5>----------------||
Bb-------------<5>---------------||
Gb-2^0----------<5>--------------||
Db-2^0-----------<5>-------------||
Ab-------------------------------||
Db-----2-0-2-0-------<2>~~~~~~~--||

Use 1st bar of Riff 1 to play along verse
play chorus w/Fill 4

 Fill 4
eb-------------------------------||
Bb------------3-2~~~-------------||
Gb--3^2^0---0--------------------||
Db--------2----------------------||
Ab-------------------------------||
Db-------------------------------||

then play riff....i forgot which one ;)
these solos are playing in the end

solo1                                      /\
eb-303030707070606060505050303030707070-10//\
Bb--------------------------------------10----|
Gb--------------------------------------------|
Db--------------------------------------------|
Ab--------------------------------------------|
Db--------------------------------------------|

solo2
eb----12-15^12-------------------------------|
Bb---12-------15^12------------------17/\/\--|
Gb--12-------------16^12^15^12^14^12---------|
Db-14----------------------------------------|
Ab-------------------------------------------|
Db-------------------------------------------|

solo3                                     x2
eb-12-/\-121212-/\-121212-/\-----------------|
Bb-15/  -----15/  -----15/  -----------------|
Gb---------------------------151412----------|
Db----------------------------------14/\/\---|
Ab-------------------------------------------|
Db-------------------------------------------|

eb-17/\/\/\--15/\/\--|\------|
Bb------------------15 \/\/\-|
Gb---------------------------|
Db---------------------------|
Ab---------------------------|
Db---------------------------|

eb----------|-------||-------|
Bb----------|-------||-------|
Gb-2----0---|-------||-------|
Db-2----0---|-------||-------|
Ab-0----x---|--0-2--||-------|
Db------5---|--0-2--||-------|

6.YOU KNOW PT.1

intro:clean
----------------0------------------------|
-3-3-3-3--3---6---6----------------------|
-2-2-2-2--2---5-----5--------------------| x4
-0-0-0-0--0---0-------0------------------|
-----------------------------------------|
-----------------------------------------|

verse:clean
-2-2--2-2-2---2-2-2--2-2-----3-3-3-3--5--3---2-2-2--2----|
-3-3--3-3-3---2-2-2--2-2-----3-3-3-3--5--3---3-3-3--3----|
-2-2--2-2-2---2-2-2--2-2-----3-3-3-3--5--3---2-2-2--2----| x2
-0-0--0-0-0---0-0-0--0-0---5-5-5-5-5-----5-0-0-0-0--0----|
---------------------------------------------------------|
---------------------------------------------------------|

chorus:clean
----0-0-0-0-0----0-0-0-0-0---------------|
----0-0-0-0-0----2-2-2-2-2---------------|
----0-0-0-0-0----2-2-2-2-2--x2-----------|
----2-2-2-2-2----2-2-2-2-2---------------|
----2-2-2-2-2----0-0-0-0-0---------------|
-0--0-0-0-0-0----------------------------|

ending:clean
-----------2-----------------------------|
---------3-------------------------------|
-------2---------------------------------|
-----0-----------------------------------|
---0-------------------------------------|
-0---------------------------------------|

7.JUNKIE

Tuning = standard |E|A|D|G|B|E|

Intro

e|-------------------------------------------------------------------|
b|-------------------------------------------------------------------|
g|-------------------------------------------------------------------| X2
d|-------------------------------------------------------------------|
a|-------------------------------------------------------------------|
E|--5*b--5*v--5--3h5--5v--3--5*b--5v--5--3---------------------------|

verse
e|-------------------------------------------------------------------|
b|-------------------------------------------------------------------|
g|-------------------------------------------------------------------|
d|-------------------------------------------------------------------|
a|-------------------------------------------------------------------|
E|--5b--5--5--3h5--5--3--5b--5--5--3*---0*--0*--3*--0*---------------|
you can play this in power chords if you want to make it sound more Meaty!

Versse part b
e|-------------------------------------------------------------------|
b|-------------------------------------------------------------------|
g|-------------------------------------------------------------------|
d|------------------------------------2-2-2-2------------------------|
a|------------------------------------2-2-2-2------------------------|
E|--5b--5--5--3h5--5--3--5b--5--5--3--0-0-0-0------------------------|
                                    pm. . . . Heavaly muted
verse part c
e|-------------------------------------------------------------------|
b|-------------------------------------------------------------------|
g|-------------------------------------------------------------------|
d|-------------------------------------------------------------------|
a|------------------------------------x-x-x-x------------------------|
E|--5b--5--5--3h5--5--3--5b--5--5--3--x-x-x-x------------------------|

chorus
e|-------------------------------------------------------------------|
b|-------------------------------------------------------------------|
g|-------------------------------------------------------------------|x2
d|--5----8----6---------------1h3---------1h3------------------------|
a|--3----6----4------6/16\0-------1-2-3-0-----1-2-3-0----------------|
E|-------------------------------------------------------------------|

riff decending back 2 verse
e|-------------------------------------------------------------------|
b|-------------------------------------------------------------------|
g|--5*--3*-----------------5*--3*------------------------------------|
d|----------5*--4*--3*-------------5*--4*--3*------------------------|
a|---------------------6*---------------------6*---------------------|
E|-------------------------------------------------------------------|

verse
e|-------------------------------------------------------------------|
b|-------------------------------------------------------------------|
g|-------------------------------------------------------------------|
d|-------------------------------------------------------------------|
a|-------------------------------------------------------------------|
E|--5b--5--5--3h5--5--3--5b--5--5--3---0*--0*--3*--0*----------------|


Versse part b
e|-------------------------------------------------------------------|
b|-------------------------------------------------------------------|
g|-------------------------------------------------------------------|
d|------------------------------------2-2-2-2------------------------|
a|------------------------------------2-2-2-2------------------------|
E|--5b--5--5--3h5--5--3--5b--5--5--3--0-0-0-0------------------------|
                                    pm. . . . Heavaly muted
verse part c
e|-------------------------------------------------------------------|
b|-------------------------------------------------------------------|
g|-------------------------------------------------------------------|
d|-------------------------------------------------------------------|
a|------------------------------------x-x-x-x------------------------|
E|--5b--5--5--3h5--5--3--5b--5--5--3--x-x-x-x------------------------|

chorus
e|-------------------------------------------------------------------|
b|-------------------------------------------------------------------|
g|-------------------------------------------------------------------|x2
d|--5----8----6---------------1h3---------1h3------------------------|
a|--3----6----4------6/16\0-------1-2-3-0-----1-2-3-0----------------|
E|-------------------------------------------------------------------|
    .    .    .   let ring

riff decending back 2 bridge
e|-------------------------------------------------------------------|
b|-------------------------------------------------------------------|
g|--5*--3*-----------------5*--3*------------------------------------|
d|----------5*--4*--3*-------------5*--4*--3*------------------------|
a|---------------------6*---------------------6*---------------------|
E|-------------------------------------------------------------------|

e|-------3-----------------------------3-----------------------------|
b|-------3-----------------------------3-----------------------------|
g|------------------5/6\5--3---------------------5/6\5--3------------| X2
d|--5---------------5/6\5--3-------5-------------5/6\5--3------------|
a|--5------------------------------5---------------------------------|
E|-------------------------------------------------------------------|
    .    .  let ring		   .   .


e|-------------------------------------------------------------------|
b|-------------------------------------------------------------------|
g|-------------------------------------------------------------------|
d|-------------------------------------------------------------------|
a|-------------------------------------------------------------------|
E|--5b--5--5--3h5--5--------------------5b--5--5--3h5--5-------------|
                   . stop on note                      .

Fillin
e|----------------17-20-17-20----------------------------------------|
b|--17-19-17-19-----------------17-17-17-19-17-----------------------|
g|---------------------------------------------19v-19v-19v-19v-19v---|
d|-------------------------------------------------------------------|
a|-------------------------------------------------------------------|
E|-------------------------------------------------------------------|

riff befor solo
e|-------------------------------------------------------------------|
b|-------------------------------------------------------------------|
g|-------------------------------------------------------------------|
d|-------------------------------------------------------------------|x2
a|-------------------------------------------------------------------|
E|--5b--5--5--3h5--5--3--5b--5--5--3---------------------------------|

in solo  ''/'' = trem pick
And      ''s'' = slide

The solo
e|--5-5-5-5-5-5-5-5-5-5-5-s-8-8-8-8-8-8-8-8-8-s-10-10-10-10-s-14-14-14-14|
b|--/-/-/-/-/-/-/-/-/-/-/---/-/-/-/-/-/-/-/-/---//-//-//-//---//-//-//-//|
g|-----------------------------------------------------------------------|
d|-----------------------------------------------------------------------|
a|-----------------------------------------------------------------------|
E|-----------------------------------------------------------------------|

e|----------------17-20-17-20---19-19-19---20-20-20---19-19-19---17-17-17|
b|--17-19-17-19-----------------//-//-//---//-//-//---//-//-//---//-//-//|
g|-----------------------------------------------------------------------|
d|-----------------------------------------------------------------------|
a|-----------------------------------------------------------------------|
E|-----------------------------------------------------------------------|

         						    (see note below)
e|--19-19-19---------12------------11--10--------9-8------------------------|
b|------------20v-------11------10--------9-----8---7--------(11hpt--rh8\0)-|
g|-------------------------10--9------------8--7-----6----------------------|
d|--------------------------------------------------------------------------|
a|--------------------------------------------------------------------------|
E|--------------------------------------------------------------------------|

Important note! om 11hpt put your right hand on fret 8 on the b-sring and slide down
whilst hammaring and puling of violently on fret 11

                (-----------------------repeat about 3x--------------------------|
e|--------------9---9--9--9--9--9--9---9---9--9--9--9--9----9---9--9--9--9--9----|
b|--------------12b-12-12-12-12-12-12--12b-12-12-12-12-12---12b-12-12-12-12-12---|
g|-------------------------------------------------------------------------------|
d|--0--3b--0b--------------------------------------------------------------------|
a|-------------------------------------------------------------------------------|
E|-------------------------------------------------------------------------------|


e|-----------------------------------------------------------------------|
b|---5b------5b------5b------5b------5b------5b--------------------------|
g|-----------------------------------------------------------------------|
d|-----------------------------------------------------------------------|
a|-------5b------5b------5b------5b------5b------5b----------------------|
E|-----------------------------------------------------------------------|

e|------------------------------------------------------------------------------12-|
b|--------------------------------------------------10-------------------9-10-12---|
g|-----------------------9------------------9-10-12--------------9-10-12-----------|
d|---------------9-10-12------------9-10-12--------------9-10-12-------------------|
a|-------9-10-12------------9-10-12------------------------------------------------|
E|--9-12---------------------------------------------------------------------------|

e|------------------9-10-12-------------12-13-15----------12-13-15-----------------|
b|----------9-10-12------------12-13-15----------12-13-15----------12-13-15--------|
g|--9-10-12------------------------------------------------------------------------|
d|---------------------------------------------------------------------------------|
a|---------------------------------------------------------------------------------|
E|---------------------------------------------------------------------------------|

e|12-13-15---------12-13-15----------12-13-15----------12-13-15----------12-13-15s0-|
b|--------12-13-15----------12-13-15----------12-13-15----------12-13-15------------|
g|----------------------------------------------------------------------------------|
d|----------------------------------------------------------------------------------|
a|----------------------------------------------------------------------------------|
E|----------------------------------------------------------------------------------|

outro
e|------------------------------------------------------------------------|
b|------------------------------------------------------------------------|
g|------------------------------------------------------------------------|
d|------------------------------------------------------------------------|
a|------------------3*-------xx-----------------3*-5*-3*------------------|
E|--3h5-3-3h5-3--0------5*v--xx---3h5-3-3h5-3-0----------5*v--------------|

note: on the recording the outro is played on a 7 string but i have got the DVD
and this is how he playes it live... and it fits fine

OUTRO SOLO RIFF (BACKGROUND)
e|-----------------------------------------------------------------------|
b|---8h10--8v--8h10--8---------------8h10--8v--8h10--8------8/10v--------|
g|---------------------9-------------------------------9-----------------|
d|-----------------------10--7v--------------------------10--------------|
a|-------------------------------xx--------------------------------------|
E|-------------------------------xx--------------------------------------|

e|-----------------------------------------------------------------------|
b|-----------------------------------------------------------------------|
g|-----------------------------------------------------------------------|
d|-----------------------------------------------------------------------|
a|-----------------------------------------------------------------------|
E|--5b--5--5--3h5--5v--3--5b--5--5--3v-----------------------------------|

8.RUNNING OUT OF TIME

------------------------------------------------------------------------------|
------------------------------------------------------------------------------|
------------------------------------------------------------------------------|
---------/9-7-5-4-2-----------------------------------------------------------|
-/7-9-10------------/5--/7-9-10--9br-7vvv-------------------------------------|
------------------------------------------------------------------------------|

9.BLACK ILLUSION

intro-verse-w/distortion
----------------------------------------------|
----------------------------------------------|
-----------4-5-4b----------4-4-4--3-3-3-------|
-3-3-3-3----------3-3-3-3--4-4-4--3-3-3--6-6--|
-3-3-3-3----------3-3-3-3--2-2-2--1-1-1--6-6--|
-1-1-1-1----------1-1-1-1----------------4-4--|


verse-w/distortion
-----------------------------------------------|
-----------------------------------------------|
-----------------------------------------------|
---------3-3----------3-3----------3-3---------|
---------3-3----------3-3----------3-3-2b-1b---|
-1-1-1-1-1-1--1-1-1-1-1-1--1-1-1-1-1-1------4--|


-----------------------------------------------|
-----------------------------------------------|
-----------------------------------------------|
---------3-3----------3-3----------3-3---------|
---------3-3----------3-3----------3-3---1b-2b-|
-1-1-1-1-1-1--1-1-1-1-1-1--1-1-1-1-1-1-4b------|


chorus-w/distortion

---------------------------------------------------|
-------------------0-------------------------------|
-------------------0-------------------------------|
-7--5--8--x--7--5--8---  <--- not exactly sure 100-| % sure about this...
-7--5--8--x--7--5--9-------------------------------|
-5--3--6--x--5--3--7-------------------------------|

10.ALIVE

Don't Know

11.CAN YOU HEAR THEM?

intro riff- just hit a bunch of open E's
-----------------------------------------------------------------|
-----------------------------------------------------------------|
-----------------------------------------------------------------|
-----------------------------------------------------------------|
--------------------------------------------P.M------------------|
-00-0-000-0-0000-0-000-0--000-00-00------------------------------|

verse-w/distortion
-----------------------------------------------------------------|
-5--12-11---7-8--11--5-12-11~---5-12-11--7-8-11--5-12-4~---------|
-----------------------------------------------------------------|
-----------------------------------------------------------------|
-----------------------------------------------------------------|
-----------------------------------------------------------------|

main verse-w/dist.
------------------------------------------------------------------------------------|
---------------------------------5-3------------------------------5b-3b--------(x4)-|
-------------------------------------4-2-4-2----------------------------4b-2b-------|
-----------------------------------------4-2-3--------------------------------------|
pick slide///----------------------------2-0-3--------------------------------------|
-------------00000000000000000000------------1--000000000000000000------------------|

chorus-w/dist.
---------------------------------------|
-----3-------5------3------------------|
-3--3-3--5--5-5-3--3-3-5--6--8---------|
-3-3-----5-5----3-3----5--6--8---------|
-1-------3------1------3--4--6---------|
---------------------------------------|


-----------------------------------------------------------------|
-5--12-11--7-8--11--5-12-11~---5-12-11--7-8--11--5-12-4~---------|
-----------------------------------------------------------------|
-----------------------------------------------------------------|
-----------------------------------------------------------------|
-----------------------------------------------------------------|

interlude-clean
------0------------0--------0----0--------------|
---------------------------0-0--0-0-------------|
----6---6--------2---2--------------------------|
--6------6-----2------2-------------------------|
4---------4--0---------0------------------------|
--------------------------2----1----------------|

-------0-------0------------0------0------------|
------------------------------------------(x4)--|
-----6--6----6--6---------2--2---2--2-----------|
---6-----6--6----6------2-----2-2----2----------|
-4--------4--------4--0--------0----------------|
------------------------------------------------|


w/distortion
------------------------|
------------------------|
-6--4--2----------------|
-6--4--2--6--4--2-------|
-4--2--0--6--4--2-------|
----------4--2--0-------|
Comments