Ozzy Osbourne - Diary Of A Madman Chords & Tabs

 

Diary Of A Madman Chords & Tabs

Ozzy Osbourne Chords & Tabs

Version: 2 Type: Tab 0 ratings
1 star 2 stars 3 stars 4 stars 5 stars
comments

Diary Of A Madman Tab

   
Band- Ozzy Osbourne
Album- Diary Of A Madman

1.OVER THE MOUNTAIN

|----------------------------------------------(6------5)----------|
|-----------x-x-x---x-x-x---x-x-x---x-x-x--------------------------|
|------------------------------------------------------------------|
|-(8)--6--5-5-5-5-5-5-5-5-5-5-5-5-5-5-5-5-12\---8------7-----------|
|--6---6--5-5-5-5-5-5-5-5-5-5-5-5-5-5-5-5--------------------------|
|------4--3-3-3-3-3-3-3-3-3-3-3-3-3-3-3-3--------------------------|

|-----------------------||-----------------------------------------|
|-----------------------||-----------------6------------6----------|
|-------------7-h-8--5--||---x-x-x-x-x-x-x-3------x-x-x-3--5-------|
|----------5------------||---------------------------------5-------|
|-------5---------------||-5-5-5-5-5-5-5-5------5-5-5-5----3-------|
|-3--6------------------||-3-3-3-3-3-3-3-3------3-3-3-3------------|

|--------------------------------------------------||--------------|
|--------------------------------------------------||--------------|
|--8----------10--------8---------10---------------||--------------|
|--8----------10--------8---------10---------------||-15\-(8)-6----|
|--6-----------8--------6----------8---------------||------6--6----|
|-------------------------------------------6---5--||---------4----|

|------------------------------|
|------------------------------|
|---x-x-x----ps----------3-----|
|-5-5-5-5---12\--3-------3-----|
|-5-5-5-5--------3-------1-----|
|-3-3-3-3--------1-------------|

|------------------------------------------------------------------|
|----4--3--3--------4-3---4-------4---3---4--------4-3---4-------4-|
|-----------------------3------------------------------3-----------|
|-5-----------3---------------5--------------3--------------5------|
|-3-----------1---------------3--------------1--------------3------|
|------------------------------------------------------------------|

|----------------------------------|
|------------------3---4-------4---|
|--------------------------5-------|
|-3---5---6------------------------|
|-3---5---6------------------------|
|-1---3---4------------------------|

Next Fig:
|------------------------------------------------------------------|
|--------6p5h6------------------------------6p5h6------------------|
|--------7p5h7-----------12p10h12-----------7p5h7------------------|
|-0--x-x---------7-x-x-x-12p10h12--7-x-x-x---------5---------------|
|----------------5-x-x-x-----------5-x-x-x---------5---------------|
|--------------------------------------------------3---------------|

|-----3-6-4p3-3-------------------------------------|
|---4--------6-6p4-3--3-----------------------------|
|-5-----------------5---5p3---3---------------------|
|---------------------------6---6-5p3-5p3---3-------|
|-----------------------------------------6---6--5--|
|---------------------------------------------------|

Solo:
|-----------------------------15------18^^---15-----15-------------|
|-------------------------------18-15-----------18^-----18~~~~~----|
|--------------------15-17^----------------------------------------|
|---------------15-17----------------------------------------------|
|-------13-15/17---------------------------------------------------|
|-13-15------------------------------------------------------------|

                        ||pull stirng with pick hand
|------------------------------------------------------------------|
|-15h18p15-18p15h18p15^-18^p15-18^p15------------------------------|
|--------------------------------------%-----%-----%----%----%-----|
|------------------------------------------------------------------|
|------------------------------------------------------------------|
|------------------------------------------------------------------|

|--------6-7-9-6-7---6---------------------------------------------|
|------------------9---7-9-6-7---6-------------------------------4-|
|-8-8--------------------------8---8-6-5-6-3h4p3---3---------------|
|------------------------------------------------6---6-4---3~~~----|
|--------------------------------------------------------6---------|
|------------------------------------------------------------------|

|------------------------------------------------------------------|
|-7p6p4-----------------7p6p4--------------------------------------|
|------6p5p3------6p5p3-------6p5p3-------6p3---(3)/13-12h13p12----|
|-----------7p6p4-------------------7p6p4--------------------------|
|------------------------------------------------------------------|
|------------------------------------------------------------------|
                         ||bend on some acsending patterns
|-9^----/\/\/\/\------------------------------------------------------------|
|-----*** with vibrato----9p6\5-8p5\4-7p4\3-6p3\2-5p2\1-4p1p0-5p2p0-6p3p0---|
|---------------------------------------------------------------------------|
|---------------------------------------------------------------------------|
|---------------------------------------------------------------------------|
|---------------------------------------------------------------------------|

Outro:
|-----10-13-11p10--10------------------------------------------------|
|---11-----------13--13p11-10--10------------------------------------|
|-12-------------------------12--12p10---10--------------------------|
|-------------------------------------13---13-12p10-12p10--10--------|
|--------------------------------------------------------13--13---12-|
|--------------------------------------------------------------------|

|------------------------------------------------|13-11-10------------------|
|-------------------------10h11p10h11p10h11p10---|--------13-11-10----------|
|-------------------10-12---------------------12-|----------------12-10-12^-|
|----------10-12-13------------------------------|--------------------------|
|-10-12-13---------------------------------------|--------------------------|
|------------------------------------------------|--------------------------|

|-----18^^-^p15--15-------------|
|-15-----------18--18^~~~~~~~---|
|-------------------------------|
|-------------------------------|
|-------------------------------|
|-------------------------------|

2.FLYING HIGH AGAIN

|--------------|------------------|----------x--|------------------|
|--------------|----------3---3---|----------3--|------------------|
|-0h2----2-2---|-----2----2---0---|----------2--|--1-1--h5-5p0-----|
|-0h2-x--2-2---|-----2----0---0---|----------0--|--0-0--h5-5p0-----|
|-0h0-0--0-0---|---x-0----0-------|----2--3-----|--x-x-------------|
|--------------|---x----------3---|-------------|------------------|

|--------------|----------------|------------x--|------------------|
|--------------|-------------3--|----------3-x--|-1p0-1p0----------|
|-2--------2px-|----2--------0--|----------2-x--|--------2p0-------|
|-2--------2px-|----2--------0--|----------0-x--|-----------2p0----|repeat for different
|-0--------0---|----0-----------|----2--3-------|--------------3^--|variations
|--------3-----|-------0--2--3--|---------------|------------------|

"mamas gonna worry..."
|-----------------|-----------------|-------------|-----------------|
|-----------------|-----------------|--8----10^---|-----------------|
|-2-------2-------|-x-------2---2---|--7-----7----|-5---------------|
|-2-------2-x-x-x-|-x-x-x-x-2---2---|--5----(7)---|-5---5-----------|
|-0---0-0-0-0-0-0-|-0-0-0-0-0-0-0-0-|-------------|-------7-6-5-3h5-|
|-----------------|-----------------|-------------|-----------------|
"If you could see inside of me..."
|-------------|---------------------|----------------0--0-|--------|
|-------------|---------------------|-3-----3-3-----------|-3-3----|
|---2-----4-6-|-(6)~~~-4-2-----4--x-|-2-----2-2-----------|-2-2----|
|---4-----6-7-|-(7)----6-4-----6--x-|-0-----------0-------|-0-0----|
|-0-----------|---------------------|---------------------|--------|
|-------------|---------------------|---------------------|--------|
"You'd see youd see what i had seen..."
|-0-4-----|-5~~~~~~--x-x-7--9--|-(9)~~-7--5-----7--5-|---------------------------|
|-0-5-----|-7--------x-x-9-10--|(10)---9--7-----9--7-|---------------------------|
|---------|--------------------|---------------------|---harmonics---------------|
|---------|--------------------|---------------------|---------------------------|
|---------|--------------------|---------------------|-7-7-7-7-7-7-7-7-7-7-7-7-7-|
|---------|--------------------|---------------------|---------------------------|

SOLO:
|14---------14--------14--------14---------|17-16-14-------------------------|
|--17p14------17p14-----17p14-----17p14----|--------17-15p14-----------------|
|-------16^--------16^-------16^-------16^-|----------------17-16p14---------|
|------------------------------------------|------------------------16-14----|
|------------------------------------------|-----------------------------16--|
|------------------------------------------|---------------------------------|

|----------------------------------------------------14h15-|
|----------------------------------------------15h17-------|
|-----------------------------------14p12-14/16------------|
|---------------------14-16-14-16h17-----------------------|
|-15p14-15h16-17p16-17-------------------------------------|
|----------------------------------------------------------|

|-14~~~~~~~~-h15p14----------------------|
|------------------17~~~~~~(x)\----------|
|------------------------------\---------|
|-------------------------------\--------|
|--------------------------------\-------|
|---------------------------------\12-12-|

|---------------------------------------|-------------------------x------------|
|---------------------------------------|151415141514145141514----x-----10h14-x|
|------------------------14h16p14h16p14-|---------------------16~~-------------|
|---------------14--16-14---------------|--------------------------------------|
|------12--16-14--16--------------------|--------------------------------------|
|-14-12--14-----------------------------|--------------------------------------|

|-101410------101510------101410------10/17-|171917191719171917-17\/9h12p9h12---|
|-------101410------101410------101410------|-----------------------------------|
|-------------------------------------------|-----------------------------------|
|-------------------------------------------|-----------------------------------|
|-------------------------------------------|-----------------------------------|
|-------------------------------------------|-----------------------------------|
   T     T       T             T    T       T
|-17p12-1712912-1712912912912-1712-1712912-1712912-|
|--------------------------------------------------|
|--------------------------------------------------|
|--------------------------------------------------|
|--------------------------------------------------|
|--------------------------------------------------|
   T    T        T    T        T        T
|-----------------------------------------------|
|-1813-18131013-1813-18131013-18131013-18131013-|
|-----------------------------------------------|
|-----------------------------------------------|
|-----------------------------------------------|
|-----------------------------------------------|
   T    T        T    T        T        T
|-----------------------------------------------|
|-----------------------------------------------|
|-1914-19141114-1914-19141114-19141114-191411-x-|
|-----------------------------------------------|
|-----------------------------------------------|
|-----------------------------------------------|
   T     T        T     T        T
|---------------------------------------xh4h7p4-|
|-----------------------------------------------|
|-----------------------------------------------|
|-20p15-20151215-20p15-20151215-20p15-\---------|
|-----------------------------------------------|
|-----------------------------------------------|
   T    T     T  T     T   T     T   T     T    T     T     T    T     T
|-12p7-12747-127-xp47-127-12747-127-1247-|-----------------------------------|
|----------------------------------------|13p8-13858-138585-138-13858-13858x-|
|----------------------------------------|-----------------------------------|
|----------------------------------------|-----------------------------------|
|----------------------------------------|-----------------------------------|
|----------------------------------------|-----------------------------------|
   T    T        T   T        T       T
|-----------------------------------------------|
|-----------------------------------------------|
|-14p9-14p9p6h9-14p9-xp9p6h9-1496969-14p9p6h9p6-|
|-----------------------------------------------|
|-----------------------------------------------|
|-----------------------------------------------|

|-----------------------------------------------|
|-----------------------------------------------|
|-----------------------------------------------|
|-15p10-15p10p7h10-15p10-15p10p7h10-15p10p7-----|
|-------------------------------------------8-\-|
|-----------------------------------------------|end solo
                    "Flying high again...."
|-------------------|-----------------|---------------------|
|-------------------|-----------------|---------------------|
|-2--2----2--5^---7-|~~~-5h7--0---5\4-|-2-2-2---2---5---7---|
|-2--2----2--5^---7-|----5----0---5\4-|-2-2-2---2---5---7---|
|-0-------0---------|-----------------|-0-0-----0-------5---|
|----3h4^-----------|-----------------|-----3h4-------------|


This is at the end:
|----------------|-15/17--17\15------|
|----------------|-15/17--17\15------|
|-2------2--5-7--|-12/14--14\12------|
|-2------2--5-7--|-12/14--14\12------|
|-0------0-------|-------------------|
|----3-4---------|-------------------|

3.YOU CAN'T KILL ROCK&ROLL

Don't Know

4.BELIEVER

bass transcribed for guitar goes all the way till the second riff
------------------------------------------------------------------------------|
------------------------------------------------------------------------------|
------------------------------------------------------------------------------|
------------------------------------------------------------------------------|
------9-----------------------------------------------------------------------|
-0---------0-----9-9-9\-------------------------------------------------------|


--------------------0----|------------------------------|---------------------|
-------------------------|------------------------------|---------------------|
----------------2--------|-2-----5--4vv---------4-------|---6/7---------------|
-------5--4vv------------|---3------------2h5-----------|---4/5--x-x--7--7----|
-0h2---------------------|------------------------------|--------x-x--5--5----|
-------------------------|--------------------------0---|---------------------|


--------------------------------------|----------------------------------------|
--------------------------------------|----------------------------------------|
------------------------------------7-|---9----------9----------4-----7--------|
-9----------9----------4h5p4------7---|---9----------9----------4-----7--------|
-7----------7----------------5--7-----|---7----------7----------2-----5--------|
-----0--0-------0--0------------------|-------0--0------0--0-------------------|
     p--|       p--|         p----|           p--|      p----------------------|

--------------------------------------|------------------------12--------------|
------------------------------------7-|---------------------------12--11vvv----|
----------------------------------7---|---9----------9-------------------------|
-9----------9----------4h5p4----7-----|---9----------9-------------------------|
-7----------7----------------5--------|---7----------7-------------------------|
-----0--0-------0--0------------------|-------0--0------0--0-------------------|
     p--|       p--|         p----|           p--|      p----------------------|

5.LITTLE DOLLS

|------------------------------|-----------------|-----------------|
|------------------------------|-----------------|-----------------|
|------4-----4--7------------9-|---------------4-|--4h7-/-/-16-----|
|------4-x-x-4--7------------9-|---------3/4h7---|-----------------|
|------2-x-x-2--5-----x------7-|---4-5-7---------|-----------------|
|-14\-----------------9-10-7---|-7---------------|-----------------|

3:           4:                 5:                    6:
|---/\--/\--|------------------|---------------------|---------------|
|--/--\/--\-|------------------|---7\---7\-----------|---------------|
|-2~~~~~~~~-|----------------2-|---7\---7\----4------|--2/4~~~-------|
|---A.H.----|--------2h3h4h5---|---7\---7\---2-------|--2/4----------|
|-----------|--2h4h5-----------|-x----x-----2--------|-----------14\-|
|-----------|------------------|----------gliss-pick-|---------------|

"The pins and needles prick the..."
|------0----------------0-------------0-----------0-----0-----------0---|
|------0----------------0-------------0-----------0-----0-----------0---|
|-9--------------11------------6-------------9-----------------7--------|
|-9--------------12------------7-------------9-----------------7--------|
|-7--------------12------------7-------------7------------14\--5--------|
|-0----------------------------0-------------0------------------------5^|

Fills:
7:                   8:                        9:
|-------------------|-------------------------|--------------------|
|-------------------|-------------7-9-10/12\--|-10/12\10/12--------|
|-------------------|-------6-7-9-----------\-|--------------------|
|---------------7-9-|-6-7-9-------------------|--7-/9-\7-/9--------|
|---5-4---5h7h9-----|-------------------------|--------------------|
|-7-----x-----------|-------------------------|--------------------|

10:           11:            12:
|------------|-----/\--/\---|--------------|
|---3--------|----/--\/--\--|--------------|
|---2-----2--|---2~~~~~~~~--|--------------|
|-x-0-----2--|------A.H.----|--------------|
|-x-----x-0--|-x------------|----------14\-|
|------------|--------------|--------------|

"Nowhere to run..."
|---------------------------------------------------------|
|--------10--9-----------9--7-----------------------------|
|--------9---9-----------9--7----------------2------2/4---|
|--------11--9-----------9--7----------------2------2/4---|
|-0--x-x-0------------x-----0---------0--x-x-0--x-x-------|
|---------------------------------------------------------|
"your time has come..."
|------------------------------------------------------|
|--------10--9-----------9-\7--------------------------|
|--------9---9-----------9-\7---------------7------7---|
|--------11--9-----------9-\7---------------7------7---|
|-0--x-x-0-----------xx-----x-------x-x-x-x----x-x-----|
|------------------------------------------------------|

Interlude:
|-----------------------------------------------------0-2--0-------|
|-2---------------------3-----------------------3------------------|
|-2-----2---2h4p2-------2-----2---2h4p2------2--2------------------|
|-2-------2----------4--0-------4----------4----0------------------|
|-0----------------------------------------------------------------|
|-----------------------3-----------------------2------------------|

|-3-----------------------|
|-3-----------------------|
|-2-----------------------|
|-0-----------------------|
|---------0-1-3-----------|
|-1-------------1-3-------|

Solo:
|----slow bend---------slow bend-------slow release----------------|
|------------------------------------------------------------------|
|--4^------------4^-----------------^4-------------^4-4p2--1-----1-|
|------------------------------------------------------------2-4---|
|------------------------------------------------------------------|
|------------------------------------------------------------------|
                                   r               r
|--------------------------------12-------------17------14-16-17-18-19^-|
|-----5h7-5----10-------10--12^----^12--10--17^----^17------------------|
|-2-4-------9^----9^~~~-------------------------------------------------|
|-----------------------------------------------------------------------|
|-----------------------------------------------------------------------|
|-----------------------------------------------------------------------|
                        Octaves
|-19~~~~~~~-17-16-----||-------------------------------------------|
|---------------------||-7-----10-----9-----7-\-5----7-----10------|
|---------------------||-------------------------------------------|
|---------------------||-4-----7------6-----4-\-2----4-----7-------|
|---------------------||-------------------------------------------|
|---------------------||-------------------------------------------|

|-------------------------------------------------------------------|
|-9------7-\-5-/-7-----10----9----7-\-5---7----10---9-\-\-\-\-------|
|-------------------------------------------------------------------|
|-6------4-\-2-/-4-----7-----6----4-\-2---4----7--------------------|
|-------------------------------------------------------------------|
|-------------------------------------------------------------------|back to 1st riff

Fills:
15:               16:                           17:
|----------------|-10p7----7-------------------|--dive & return----|
|----------------|------10---10-7-10p7---7-----|---\----/----------|
|----------------|---------------------9---9-7-|-4--\--/-----------|
|------------7-9-|-----------------------------|-------------------|
|--------7h9-----|-----------------------------|-------------------|
|-7-9-10---------|-----------------------------|-------------------|

16:
|----------------|
|-10/12-\10-/12--|
|----------------|
|-7-/-9-\-7-/-9--|
|----------------|
|----------------|

Outro Solo:
|-slow b-----------------------------------------------------------|
|-12^-----12-12-12-12^---12^----^12^-----^12---10------------10----|
|------------------------------------------------------------------|
|------------------------------------------------------------------|
|------------------------------------------------------------------|
|------------------------------------------------------------------|

|-9-10-12p10p9--9-10p9----------------------------------------------------|
|----------------------10----------------------------------------10h12p10-|
|-------------------------9--------------7----7/9~~~~~------9-11----------|
|---------------------------x-11~~~~~-------------------------------------|
|-------------------------------------------------------------------------|
|-------------------------------------------------------------------------|

|-12h14p12~~~~~~~~~~----17^---17^---17^-~~~~~~~~~--19^-----------(19)^~~~~~~~-|
|-----------------------17^---17^---17-~~~~~~~~~~-----22^-22^-22^------22^----|
|-----------------------------------------------------------------------------|
|-----------------------------------------------------------------------------|
|-----------------------------------------------------------------------------|
|-----------------------------------------------------------------------------|

|---dive----19^~~~~~~~~~~----|-------------------14h17p14----14-------|
|---\------------------------|----------------------------17----17p14-|
|-0|-\-----------------------|--------14h16p14------------------------|
|-----\----------------------|--14-16----------16---------------------|
|----------------------------|----------------------------------------|
|----------/\/\/\/\/\/\/\/\--|----------------------------------------|

|------------------------------------------------------------------|
|----------------------14h17p14h17-17^~~~~~~~~~~~~~~~~-\-----------|
|-16-14h16p14----14h16---------------------------------------------|
|-------------16---------------------------------------------------|
|------------------------------------------------------------------|
|------------------------------------------------------------------|

|-------------------------------|-------------------------------------|
|-------------------------------|-------------10~~~~--------10-12^-10-|
|-/7--6--4----2-4/6~~-7--9-7~~--|--------9/11-----------------x-------|
|-------------------------------|-----------------------------x-------|
|-------------------------------|-------------------------------------|
|-------------------------------|-------------------------------------|
      /\  /\
|-12^/--\/--\~~~------------------------14-17p14--14----------------|
|---------------------------------14-17---------17--17-14-----------|
|---------------------------14-16-------------------------16\14-----|
|-------------------------------------------------------------------|
|-------------------------------------------------------------------|
|-------------------------------------------------------------------|

|------------------------------------------10-9----------------------|
|-------------x-17^~~~~~~~~~~~~~~---------------12^----------10-9-10-|
|--------------------------------------------------------------------|
|--------------------------------------------------------------------|
|--------------------------------------------------------------------|
|--------------------------------------------------------------------|

6.TONIGHT

|-4-----4--5-----5--4h5p4-------------------------|
|-5--5--5--7--------------7--2-----2--3------2----|
|----------------------------2--2------------2----|
|-------------------------------------------------|
|-------------------------------------------------|
|-------------------------------------------------|

|-4-----4--5-----5--4h5p4----4-----4--5----5--5-|---7-9-7-------|
|----5--------------------7-----5---------------|-10------10----|
|-----------------------------------------------|---------------|
|-----------------------------------------------|---------------|
|-----------------------------------------------|---------------|
|-----------------------------------------------|---------------|

"now im back out on the..."
|----------2---------0------10-----9----7--------------------------|
|-------0--0------0--0------10----10---10--------------------------|
|----1----------------------9------9----9--------------------------|
|------------------------------------------------------------------|
|------------------------------------------------------------------|
|-0----------------------------------------------------------------|

|----------2---------0-----9--10---8-------------------------------|
|-------0--0-----0---0----10--10---8-------------------------------|
|----1---------------------9---9---9-------------------------------|
|-------------------------------------2-4--5-4-2-------------------|
|------------------------------------------------------------------|
|-0----------------------------------------------------------------|
[ Tab from: http://www.guitartabs.cc/tabs/o/ozzy_osbourne/diary_of_a_madman_tab_ver_2.html ]
"i hear the raging..."
|----------7-------------9--10----8--------------------------------|
|----------7----9--7----10--10----8------PS--electric in-----------|
|-------9-------------9--9---9----9----\\--------------------------|
|----9-----------------------------------\\------------------------|
|------------------------------------------\\----------------------|
|-0----------------------------------------------------------------|

|------------------------------------------------------------------|
|------------------------------------------------------------------|
|--9---------9----------4--------4---------6---------6------4---2--|
|--9---------9----------4--------4---------6---------6------4---2--|
|--7-----x-x-7----------2--------2---------4---------4------2---0--|
|--0-----x-x-------------------------------------------------------|

|----------------------------------------------------------------------|
|-0------------------------------------------------------------------0-|
|-2------------9-------9--------4-----4-------6-------6-----4----2---2-|
|-2------------9-------9--------4-----4-------6-------6-----4----2---2-|
|-0------------7-------7--------2-----2-------4-------4-----2----0---0-|
|----------------------------------------------------------------------|

Solo:
|---------------16-17-19p17p16-19p17p16-19^---19^-19~~~~--17-19-17-|
|--------17~~~~----------------------------------------------------|
|------16----------------------------------------------------------|
|-17/18------------------------------------------------------------|
|------------------------------------------------------------------|
|------------------------------------------------------------------|

|-17p16----16---------14\~~~~~---------9-12p9----9-----------------|
|-------17---17----------\-------9/12^--------12---12p9------------|
|--------------16---------\-----------------------------11^---^^p9-|
|----------------18-x------\---------------------------------------|
|---------------------------\--------------------------------------|
|------------------------------------------------------------------|

|----------------------16-17-19p17p16-15~~~~~----------------------|
|----------12-17~~~----------------------------17-15-17^~~~~-------|
|-9--12/13---------------------------------------------------------|
|------------------------------------------------------------------|
|------------------------------------------------------------------|
|------------------------------------------------------------------|

|-------------------------------------------------------------------|
|-----17^~~~~~~~~~--------------------------------16-17-16-17-19-17-|
|---16---------------18-16----16-18-16~~~~~~---18-------------------|
|-18-----------------------18-----------------x---------------------|
|--------------------------------------------x----------------------|
|-------------------------------------------------------------------|

|----16----16-17-16-17-19/21--19~~~~~~~~~-----------------------16~~~-|
|-19----19------------------------------------------------------------|
|----------------------------------------------------13---------------|
|------------------------------------------------------14-------------|
|---------------------------------------------------------14----------|
|---------------------------------------------------------------------|

|------------------------------------------------------------------|
|------------------------------------------------------------------|
|-7---------5----------12--------12---8----------------3-3-------3-|
|-7---------5----------12--------12---8----------------3-3-------3-|
|-5---------3----------10--------10---6------5p3---3h5-----x-3h5---|
|------------------------------------------------6-----------------|

|----------------------1-------------------------------------------|
|----------------------1-------6--------------6---------6----------|
|-----3-------3--------2-------5--------------7---------7----------|
|-----5-------5---3---------------5\3---7-----7---------7----------|
|-5---5-------5---3---------------------5---------x--x-------------|
|-3---3-------3---1------------------------------------------------|

Outro:
|-4/7p0--12p0-7p0-12p0-7p0-7p0-12p0-7p0-7p0-12p0-7p0-7p0-12p0-7p0-7p0-|
|---------------------------------------------------------------------|
|---------------------------------------------------------------------|
|---------------------------------------------------------------------|
|---------------------------------------------------------------------|
|---------------------------------------------------------------------|

|------------------------------------------------------------------|
|------------------------------------------------------------------|
|------------------------------------------------------------------|
|-%-----%-----%------%----%----%----%----------^7^-(7)p5-----------|
|---------------------------------------14\--------------7~~~~~~~~-|
|------------------------------------------------------------------|

|-------------------------------------------------------------------|
|-------------------------------------------------------------------|
|-------------------------------------------------------------------|
|-7^------------p(7)p5----------------4-5---4-5-5/7~~~---7-5-4-5----|
|----------------------7~~~~~~~~`---7-----7-------------------------|
|-------------------------------------------------------------------|on and on and on

7.S.A.T.O.

Intro:  the x'x represents 2 guitars playing at once.

|---0'0--------0'0-----0'0-----0'0----0-------0'0------------------|
|---------0'0-------1------0'0-----------0'0-----------------------|
|-------------------------------------2----------------------------|
|-2--------------------------------2-------------------------------|
|------------------------------------------------------------------|
|------------------------------------------------------------------|

|-----0-------0--------2--0'0-------2----2----0'0---|
|-3---3---3---------0--0------------0---------------|
|---------2---------0-------------------------------|
|-0--------------2----------------------------------|
|---------------------------------------------------|
|---------------------------------------------------|

|------------0-----0'0------------------2--0'0----|
|-------0'0-----3-------3'3----------0------------|
|---2'2---------2------------2'2--------0---------|
|---------------------------------2--4------------|
|-------------------------------------------------|
|-------------------------------------------------|

|-----0'0-------2-----0-------0-------0--0-----|
|----------0'0--------2--0'0-----3'3-----3--3--|
|---------------0--2---------------------------|
|----------------------------------------------|
|----------------------------------------------|
|----------------------------------------------|

|-------2--0'0------0-----0----0-------------0---2-----------------|
|----0--0-----------0--0-------2-------2'2-------3-----------------|
|----0-----------------0--0----2'0--2--------2---2-PS--------------|
|-2----------------------------------------------0x\\\\------------|
|-------------------------------------------------x\\\\------------|
|------------------------------------------------------------------|

|-----0-----0---0------0---0------0---0---------|
|-----0-----0---0------0---0------0---0---------|
|-----------------------------------------------|
|-9-------9------------5---5----5---------------|
|-7-------7------------3---3----3-------3p2p0---|
|-0---------------------------------------------|

|-----0-----0---0----------------------------|
|-----0-----0---0----------------------------|
|-2-------2------------4---------------------|
|-2-------2------------4---4-----------------|
|-0-------0------------2---0h2p0-------------|
|---------------------------------3---2------|

|-----0------------------------0--------------------|
|-----0------------------------0--------------------|
|---------------------------------------------------|
|-9------------------------5-------5---5p4-5-p-0----|
|-7------7-10p9-7---p---0--3-------3----------------|
|-0-------------------------------------------------|

|-----0-----0---0---------------------||---------------------------|
|-----0-----0---0---------------------||---------------------------|
|-2-------2-----------4---------------||-4p2p0---------------------|
|-2-------2-----------4----4----------||------4p2p0----------------|
|-0-------------------2----0h2p0------||-----------3p2p0-----------|
|--------------------------------3--2-||----------------3p2p0------|

I cant conceal it like i know i..."
|---------w/ wah---------------------------------------------------|
|------------------------------------------------------------------|
|-0--------------3-------------2------------5----------------------|
|-0--------------3-------------2------------5----------------------|
|---------------------------------------------------15\------------|
|-3----------------------------------------------------------------|

Variation of main riff
|-----0-----------------------0------------------------------------|
|-----0-------8----8\---------0--------8--8\-----------------------|
|------------------------------------------------------------------|
|-9------2/4--5----5\-----5------------5--5\------continue...------|
|-7-----------------------3-------5h7------------------------------|
|-0----------------------------------------------------------------|

Bridge:
|---------------------------------------------------|---2--|----0--|
|---------------------------------------------------|---2--|----3--|
|-4---4-x-x---4---4--------------------2---2--------|------|-2--2--|
|-4---4-x-x---4---4-x-x---2---2--------2---2--------|------|-0-----|
|-2---2-x-x---2---2-x-x---2---2--------0---0--4p2p0-|-4----|-------|
|-----------x-----------x-0---0-0h4p0---------------|-2----|-------|

Solo:
|----------------------------------17p16~~~~~----------------------|
|----------------------------17h19------------\--------------------|
|----------------------16h18-------------------\-------------------|
|----------------16h18--------------------------\------------------|
|----------16h19---------------------------------\-----------------|
|-14/16-19---------------------------------------------------------|

|------(9)------9-----------------------9--------------------------|
|-----9---12^~~--12p9-10p9---9--------9----------------------------|
|-11^---------------------12--12p9-11^---11p9----------------------|
|--------------------------------------------11-9---------9----9---|
|-------------------------------------------------11-(11)---11-----|
|------------------------------------------------------------------|

|------------------------------------------------------------------|
|-----------------------------------5p4-5p4----AH------------------|
|-9------8------7-----6-----5---4h6---------6^~~~~~~~~~~~~---------|
|---(11)---(10)---(9)---(8)---7------------------------------------|
|------------------------------------------------------------------|
|------------------------------------------------------------------|

|------------AH----------------------------------------------------|
|-5p4-5p4-----5-4-5p4----------------------------------------------|
|---------6-4---------6-4-6p4--------------------------------------|
|-----------------------------7-6-4--------------------------------|
|-----------------------------------7-6~~~~~~~~~~~~~~~~~~----------|
|------------------------------------------------------------------|

|-----------------------------(9)------12-15-14~~~~~~~~~~~~~~~~~---|
|---------------------------9----11/14-----------------------------|
|-6p4h6-8-6-8-9-8-9-11-9h11----------------------------------------|
|------------------------------------------------------------------|
|------------------------------------------------------------------|
|------------------------------------------------------------------|

|----------------------------17-17-17-17p16p(12)-16-12-----------------|
|------------------------------------------------------15----p--12-p-0-|
|-------------------------16-------------------------------------------|
|----------------14-16/18----------------------------------------------|
|----------14h16-------------------------------------------------------|
|-12h14-16-------------------------------------------------------------|

|------------------------------------------------------------------|
|-15-15-15-15p12-14-15-15-15-15-14-12-14---14^-^p12----------------|
|---------------------------------------------------13~~~~~~~p-0---|
|------------------------------------------------------------------|
|------------------------------------------------------------------|
|------------------------------------------------------------------|

|------------------------------------------------------------------|
|-------------------------------12-p10\9h10p9h10/12----p-----0-----|
|-----------------12p11-9-11/13------------------------------------|
|-------9-12p11-9--------------------------------------------------|
|-10h11------------------------------------------------------------|
|------------------------------------------------------------------|

|-19-19-19-19-19-(19)-19-19p17p16-17p16------16-------------------------|
|---------------------------------------(17)----17----------------------|
|--------------------------------------------------16-16\14--13--p---0--|
|-----------------------------------------------------------------------|
|-----------------------------------------------------------------------|
|-----------------------------------------------------------------------|

|----15----15---15---15---15---15---15-----------15------18^^------|
|-18^---18^--18^--18^--18^--18^--18^--18-15----15--18-15-----------|
|-------------------------------------------18---------------------|
|------------------------------------------------------------------|
|------------------------------------------------------------------|
|------------------------------------------------------------------|

|-^----15----------^^^-----------------------------------------------------|
|---------18-15-17^^^^(17---17---------15~~~~-------15-15~~-----15-15~~~~--|
|---------------17^------17)17--^15----15~~~~-------15-15~~-----15-15~~~~--|
|-----------------------------------17-----------17----------17------------|
|--------------------------------------------------------------------------|
|--------------------------------------------------------------------------|

|--------20^-^-^--19--p--0--------15-------------------------------|
|-15-p-0------------------------15--18-15----15--------------------|
|-15-p-0---------------------17^----------17----17-15--------------|
|-----------------------------------------------------17p15--------|
|-----------------------------------------------------------17-----|
|------------------------------------------------------------------|

|------------------------------------------------|
|------------------------------------------------|
|------------------------------------------------|
|------------------------------------------------|
|-16-15------15^--^--------x-x-x-back to bridge--|
|-------(17)---------18^-------------------------|

8.DIARY OF A MADMAN

Intro:
E----------0-------|---------0-------|---------5-------|---------5-------|
B--------4---4-----|-------4---4-----|-------4---4-----|-------3---3-----|
G------6-------6---|-----6-------6---|-----5-------5---|-----4-------4---|
D----7-----------7-|---5-----------5-|---4-----------4-|---3-----------3-|
A--0---------------|-0---------------|-0---------------|-0---------------|
E------------------|-----------------|-----------------|-----------------|


E----------0-------|---------0-------|---------0-------|---------0-------|
B--------2---2-----|-------1---1-----|-----1-----1---1-|-----3-----3---3-|
G------4-------4---|-----4-------4---|---4---4-----4---|---2---2-----2---|
D----2-----------2-|---2-----------2-|-----------------|-----------------|
A--0---------------|-0---------------|-----------------|-----------------|
E------------------|-----------------|-3---------------|-1---------------|


E------------------------0-----|
B------------------0---0-0-0-3-|
G------------1---1---1-------4-|
D------4---4---4---------------|
A----2---2---------------------|
E--0---------------------------|


Riff A:
E--------------------------------------|---------------------------------|
B--------------------------------------|---------------------------------|
G------5---4-------2---4---5---4---2---|-----5---4---2---4---5---4-------|
D----2---2---2---2---2---2---2---2---2-|---2---2---2---2---2---2---2---2-|
A--0-----------0-----------------------|-0-------------------------------|
E--------------------------------------|-----------------------------0---|
End Riff A


Play Riff A 2 times with acoustic then 1 time with electric

Overdriven:
E--------------------------------------|------------------------|
B--------------------------------------|------------------------|
G------5---4-------2---4---5---4---2---|-----5---4---2---4---5--|
D----2---2---2---2---2---2---2---2---2-|---2---2---2---2---2----|
A--0-----------0-----------------------|-0----------------------|
E--------------------------------------|------------------------|


E---------------------|
B---------------------|
G--------------5-\-4--|
D--2---3---4---5-\-4--|
A--2---3---2---3-\-2--|
E--0---1---2----------|


Riff B:
E------0-------------------5------5--|-----0-----------------5------0--|
B--------4-------4---4--------3------|-------4-------4--4-------3------|
G----------6---6-----5--------4------|---------6---6----5-------4------|
D------------5-------4--------3------|-----------5------4-------3------|
A--0---------------------------------|-0-------------------------------|
E------------------------------------|---------------------------------|
End Riff B


Verse 1 with Riff B:

   Am       G        F       G        F       G
E-----------------------------------|-----------------|
B-----1-----------1-------1--3--1---|-----3-----0--1--|
G--------4-----4--------2---------2-|---2-----2-------|
D-----------------------------------|-----------------|
A--0--------------------------------|-----------------|
E-----------3--------1-------3------|-1-------3-------|

Riff B 1 time

Verse 2 with Riff B:

   Am       G        F       G        F       G      Am     F   G
E-----------------------------------|-----------------------------------|
B-----1-----------1-------1--3--1---|-----3-----0--1---1----1---0-------|
G--------4-----4--------2---------2-|---2-----2----------4--2---0-------|
D-----------------------------------|---------------------------0-------|
A--0--------------------------------|----------------0------------------|
E-----------3--------1-------3------|-1-------3-------------1---3-------|


   Am       G        F       G        F       G
E-----------------------------------|-----------------|
B-----1-----------1-------1--3--1---|-----3-----0--1--|
G--------4-----4--------2---------2-|---2-----2-------|
D-----------------------------------|-----------------|
A--0--------------------------------|-----------------|
E-----------3--------1-------3------|-1-------3-------|


Riff A 1 time

E--------------------------------------|------------------------|
B--------------------------------------|------------------------|
G------5---4-------2---4---5---4---2---|-----5---4---2---4---5--|
D----2---2---2---2---2---2---2---2---2-|---2---2---2---2---2----|
A--0-----------0-----------------------|-0----------------------|
E--------------------------------------|------------------------|


E------------------------|-----------------------------------------------|
B------------------------|-----------------------------3----------3------|
G------------------------|--------------------------------0----------0---|
D------------------------|------5---4-------2---4---5----------4---------|
A--3--3h5p3p0------------|----2---2---2---2---2---2----------------------|
E-------------2---2h3p2--|--0-----------0--------------------------------|


E--------------------------------------------------|
B--------------------------------------------------|
G-----------------------------------0------------0-|
D------5---4-------2---4--------2------------2-----|
A----2---2---2---2---2---2---1-----------0---------|
E--0-----------0-----------------------------------|

E------------------------------------------5------|
B------------------------------3---------------3--|
G---------------------------------0---------------|
D------5---4-------2---4---5-----------4----------|
A----2---2---2---2---2---2------------------------|
E--0-----------0----------------------------------|

E--------------------------------------------------|
B--------------------------------------------------|
G-----------------------------------0------------0-|
D------5---4-------2---4--------2------------2-----|
A----2---2---2---2---2---2---1-----------0---------|
E--0-----------0-----------------------------------|


Interlude:

E-----------------0----|-----------------0----|-----------------0----|
B------8----8-------8--|------8----8-------8--|------8----8-------8--|
G--------11---11-------|--------11---11-------|--------11---11-------|
D----9-----------------|----9-----------------|----9-----------------|
A----------------------|----------------------|----------------------|
E--0-------------------|--0-------------------|--0-------------------|

E------------------0----|--------------0----|----0-----------0-----|
B--------8----8------8--|------8---8-----8--|------0----0----------|
G-----11---11---11------|----7---7---7------|-11-----11---11---11--|
D--10-------------------|--9----------------|----------------------|
A-----------------------|-------------------|----------------------|
E-----------------------|-------------------|----------------------|

E-----------0---------|------------------0----|----------0-------|
B--8------8---8----8--|--------8----8------8--|------8-----8---8-|
G------11-------11----|-----11---11---11------|----7---7-----7---|
D----9----------------|--10-------------------|--9---------------|
A---------------------|-----------------------|------------------|
E---------------------|-----------------------|------------------|

E-----0-----------0----|----------0--------|--0--------0----------|
B-------0----0---------|-8------8---8----8-|-10-----10---10----10-|
G--11-----11---11---11-|-----11-------11---|-----11---------12----|
D----------------------|---9---------------|----------------------|
A----------------------|-------------------|----------------------|
E----------------------|-------------------|----------------------|

E-----------0---------|--0-------------------|--0--------0--------|
B--8------8---8----8--|-10-----10-12-10-8-7--|--8------8---8----8-|
G------11-------11----|-----11----12-11-9-7--|------11-------11---|
D----9----------------|----------------------|----9---------------|
A---------------------|----------------------|--------------------|
E---------------------|----------------------|--------------------|

E--0--------0----------|-----------0---------|--0-------0----------|
B-10-----10---10----10-|--8------8---8----8--|-10----10---10-------|
G-----11---------12-11-|------11-------11----|----11---------12-11-|
D----------------------|----9----------------|---------------------|
A----------------------|---------------------|---------------------|
E----------------------|---------------------|---------------------|

E-----------0---------|--0-------------------|--0--------0--------|
B--8------8---8----8--|-10-----10-12-10-8-7--|--8------8---8----8-|
G------11-------11----|-----11----12-11-9-7--|------11-------11---|
D----9----------------|----------------------|----9---------------|
A---------------------|----------------------|--------------------|
E---------------------|----------------------|--------------------|

E--0-------0----------|-----------0---------|--0-------0----------|
B-10----10---10----10-|--8------8---8----8--|-10----10---10----10-|
G----11---------12----|------11-------11----|----11---------12-11-|
D---------------------|----9----------------|---------------------|
A---------------------|---------------------|---------------------|
E---------------------|---------------------|---------------------|

E-----------0---------|--0-------------------|--0--------0--------|
B--8------8---8----8--|-10-----10-12-10-8-7--|--8------8---8----8-|
G------11-------11----|-----11----12-11-9-7--|------11-------11---|
D----9----------------|----------------------|----9---------------|
A---------------------|----------------------|--------------------|
E---------------------|----------------------|--------------------|

E--0--------0----------|-----------0--------|--0-------0----------|
B-10-----10---10-------|--8------8---8----8-|-10----10---10----10-|
G-----11---------12-11-|------11-------11---|----11---------12----|
D----------------------|----9---------------|---------------------|
A----------------------|--------------------|---------------------|
E----------------------|--------------------|---------------------|

E-----------0--------|--0-------------------|
B--8------8---8----8-|-10-----10-12-10-8-7--|
G------11-------11---|-----11----12-11-9-7--|
D----9---------------|----------------------|
A--------------------|----------------------|
E--------------------|----------------------|


Overdriven:
E----------------------------|
B----------------------------|
G----------------------------|
D----------------------------|
A--3--3h5p3p0----------------|
E--------------2---2h3p2--0--|


Play 3 times:
E------------------------|---------5----------------------|
B------------------------|---------5----------------------|
G-----9\7/9------9\8/-9--|--------------------------------|
D-----9\7/9--------------|---------------------0-5p4-2----|
A-----7\5/7-----10\9/10--|---------------3p2-3---------5--|
E-0-0-------0-0----------|--0h2-2-----2-------------------|

Solo (sorry i don't have it)

Verse 3 with Riff B

   Am       G        F       G        F       G      Am     F   G
E-----------------------------------|-----------------------------------|
B-----1-----------1-------1--3--1---|-----3-----0--1---1----1---0-------|
G--------4-----4--------2---------2-|---2-----2----------4--2---0-------|
D-----------------------------------|---------------------------0-------|
A--0--------------------------------|----------------0------------------|
E-----------3--------1-------3------|-1-------3-------------1---3-------|


   Am       G        F       G        F       G
E-----------------------------------|-----------------|
B-----1-----------1-------1--3--1---|-----3-----0--1--|
G--------4-----4--------2---------2-|---2-----2-------|
D-----------------------------------|-----------------|
A--0--------------------------------|-----------------|
E-----------3--------1-------3------|-1-------3-------|


Repeat Riff A to the end
Comments