Ozzy Osbourne - Diary Of A Madman Chords & Tabs

 

Diary Of A Madman Chords & Tabs

Ozzy Osbourne Chords & Tabs

Version: 1 Type: Bass Tab 0 ratings
1 star 2 stars 3 stars 4 stars 5 stars
comments

Diary Of A Madman Bass Tab

             Diary Of A Madman


                                                                   Ozzy 
Osbourne
Bass Tab                     mute@metallica.com
                                  enjoy
Tabbed out by Chris "I need a cigarette" Davison
Open for comments!



F#||------------------|------------------|------------------|------------------|
C#||------------------|------------------|------------------|------------------|
G#||------------------|------------------|------------------|------------------|
D#||------------------|------------------|------------------|------------------|



------------------|------------------|------------------|------------------|
------------------|------------------|------------------|------------------|
------------------|------------------|------------------|------------------|
------------------|------------------|------------------|------------------|



------------------|------------------|--------------------|------------------|
------------------|------------------|--------------------|------------------|
------------------|------------------|--------------------|------------------|
------------------|------------------|--------------------|------------------|



--------------------|-------------------|-----------------------|
--------------------|-------------------|-----------------------|
--------------------|-------------------|-----------------------|
--------------------|----------------0--|--5------5------5------|



----------------------|-----------------------|-----------------|
----------------------|-----------------------|-----------------|
----------------------|-----------------------|-----------------|
--5------5------5--0--|--5------5------5------|--5------5----5\-|



---------------------|----------------------|
---------------------|----------------------|
---------------------|------------3-3-3--2--|
--0---0-0--1---1-1-1-|--2---2-2-2-----------|



---------------------------------------|--------------------------------------|
----------------------------------7----|--------------------------------------|
---------------------------------------|--------------------------------------|
--3-5-------3-5-----3-5-----3-5--------|--3-5-------3-5-----3-5-----3-5-------|



--------------------------------------|--------------------------------------|
--------------------------------------|--------------------------------------|
--------------------------------------|--------------------------------------|
--3-5-------3-5-----3-5-----3-5-------|--3-5-------3-5-----3-5-----3-5-------|



----------------|-------------------|-------------------|
----------------|-----------5--5-5--|-----------5--5-5--|
----------------|-------------------|-------------------|
--5------3------|--1------3---------|--1------3---------|



--------------------------------------|--------------------------------------|
--------------------------------------|--------------------------------------|
--------------------------------------|--------------------------------------|
--3-5-------3-5-----3-5-----3-5-------|--3-5-------3-5-----3-5-----3-5-------|



--------------------------------------|--------------------------------------|
--------------------------------------|--------------------------------------|
--------------------------------------|--------------------------------------|
--3-5-------3-5-----3-5-----3-5-------|--3-5-------3-5-----3-5-----3-5-------|



--------------------------------------|--------------------------------------|
--------------------------------------|--------------------------------------|
--------------------------------------|--------------------------------------|
--3-5-------3-5-----3-5-----3-5-------|--3-5-------3-5-----3-5-----3-5-------|



------------------|-------------------|------------------|--------------------|
-------------5-5--|--------------5----|-------------5----|-------7-7----------|
------------------|-------------------|------------------|--------------------|
--5------3--------|--1------3--3---3--|--1------3-----3--|--5--------1--1--3--|



---------------------|--------------------|--------------------|
-----------------5-5-|------3-------------|--------------5-----|
---------------------|--------------------|--------------------|
--5----5-5-3---3-----|--1-----1--3---3-3--|--1---1-1--3-----3--|



-----------------------|----------------------|-----------------------|
-----------------------|----------------------|-----------------------|
-----------------------|----------------------|-----------------------|
--5------5------5------|--5------5------5--0--|--5------5------5------|



------------------|---------------------|----------------------|
------------------|---------------------|-----------5----------|
------------------|--3---3-3-3-5---5-5/-|--------------7-5-----|
--5------5---0-5\-|---------------------|--0--0--0---------7-5-|



----------------------|-----------------------|----------------------|
----------------------|-----------------------|----------------------|
------------5---5-5/7-|------------------5-7--|----------------------|
--3---3-3-3-----------|--0--0--0-0-3-5/7------|--6--6-6-6-6-5---0-5\-|



---------------------|----------------------|--------------------|
---------5-5---------|----------------------|--------------------|
-------------7-5-----|------------5---5-5/7-|---------7-----5-7--|
--0--------------7-5-|--3---3-3-3-----------|--0--------5-7------|



----------------|-------------------|------------------|-------------------|
----------------|-------------------|------------------|-------------------|
----------------|-------------------|------------------|--7----------------|
--6------5\-----|--0----------------|------------------|-------------------|



------------------|-------------------|------------------|-------------------|
------------------|-------------------|------------------|-------------------|
------------------|-------------------|------------------|-------------------|
------------------|--0----------------|------------------|--0----------------|


[ Tab from: http://www.guitartabs.cc/tabs/o/ozzy_osbourne/diary_of_a_madman_btab.html ]
------------------|-------------------|----------------------|
------------------|-------------------|--------------4h5p4---|
------------------|--7----------------|--------------------5-|
------------------|--0----------------|----------------------|



-------------------|-------------------|-----------------------|
-------------------|-------------------|---------------4-5p4---|
--7----------------|--5----------------|--7------------------7-|
-------------------|-------------------|--0--------------------|



-------------------|--------------------|-----------------------|
-------------------|--------------------|---------------4h5p4---|
--5----------------|-------7------------|--5------------------5-|
-------------------|--0----0------------|-----------------------|



--------------------|-----------------------|----------------------|
--------------------|---------------4h5p4---|----------------------|
--7----7------------|--5------------------5-|--7-----7--------7\---|
-------0------------|-----------------------|-----0--0--------0----|



-----------------------|------------------------|-------------------|
---------------4h5p4---|----------------4h5p4---|-------------------|
--5------------------5-|--7--7----------------7-|--5----------------|
-----------------------|-----0------------------|-------------------|



-------------------------|-----------------------|-------------------------|
-----------------4h5p4---|---------------4h5p4---|-----------------4h5p4---|
--7---------7----------7-|--5------------------5-|--7-----7--------------7-|
-------0-----------------|-----------------------|-----0--0----------------|



-----------------------||---------------------------|
---------------4h5p4---||*------------------4h5p4---|
--5------------------5-||*--7-----7---------------7-|
-----------------------||------0-------0------------|


                          2x
--------------------------||----------------------------|
-----------------4h5p4---*||--------------------4h5p4---|
--5----5----5----------5-*||--7-----------7--7\-------5-|
--------------------------||-----0--0--0----------------|



-------------------------------|----------------------------|
-----------------------4h5p4---|--------------------4h5p4---|
--5--5-5-5--5-5-5--5-5-------5-|--7-----------7--7\-------5-|
-------------------------------|-----0--0--0----------------|



-------------------------------|-----------------------------|
-----------------------4h5p4---|---------------------4h5p4---|
--5--5-5-5--5-5-5--5-5-------5-|--7------7-----------------7-|
-------------------------------|-----0-0----0-0-0------------|



------------------------------|-------------------------------|
----------------------4h5p4---|-----------------------4h5p4---|
--5--5-5-5--5-5-5--5--------5-|--7-------------7------------7-|
------------------------------|-----0-0-0--0-0----0-0---------|



-------------------------------|----------------------------|
-------------------------------|----------------------------|
--5-5-5-5-5-5-5-5-5-5-5--5-5\--|--3---3-3-------------------|
-------------------------------|-----------5p3-2~---2h3p2p0-|



----------------------------|--------------------------------|
----------------------------|----------4-------------5-4-2-0-|
--7-----7\5/7\---3p2-3--3-3-|----------------3-2-3-5---------|
-----0----------------------|--0h2-2-2----2------------------|



---------------------------|-------------------------------|
--2------------------------|---------4-------------5-4-2-0-|
-----7--7\5/7--7\-3p2-3----|---------------3-2-3-5---------|
---------------------------|--0h2-2-----2------------------|



----------------------------|--------------------------------|
--2--2----------------------|----------4-------------5-4-2-0-|
--------2/5-7------3p2-3----|----------------3-2-3-5---------|
---------------0-0----------|--0h2-2-2----2------------------|



--------------------------------------|--------------------------------------|
--------------------------------------|--------------------------------------|
--------------------------------------|--------------------------------------|
--3-5-------3-5-----3-5-----3-5-------|--3-5-------3-5-----3-5-----3-5-------|



--------------------------------------|--------------------------------------|
--------------------------------------|--------------------------------------|
--------------------------------------|--------------------------------------|
--3-5-------3-5-----3-5-----3-5-------|--3-5-------3-5-----3-5-----3-5-------|



--------------------------------------|--------------------------------------|
--------------------------------------|--------------------------------------|
--------------------------------------|--------------------------------------|
--3-5-------3-5-----3-5-----3-5-------|--3-5-------3-5-----3-5-----3-5-------|



--------------------------------------|--------------------------------------|
--------------------------------------|--------------------------------------|
--------------------------------------|--------------------------------------|
--3-5-------3-5-----3-5-----3-5-------|--3-5-------3-5-----3-5-----3-5-------|



------------------|-------------------|------------------|--------------------|
-------------5-5--|--------------5----|-------------5----|-------7-7----------|
------------------|-------------------|------------------|--------------------|
--5------3--------|--1------3--3---3--|--1------3-----3--|--5--------1--1--3--|



---------------------|--------------------|--------------------|
-----------------5-5-|------3-------------|--------------5-----|
---------------------|--------------------|--------------------|
--5----5-5-3---3-----|--1-----1--3---3-3--|--1---1-1--3-----3--|


                                                 7x
|------------------------|-----------------------||-------------------||
|*-----------------------|----------------------*||-------------------||
|*-----------------------|----------------------*||-------------------||
|---5------5------5------|--5------5------5--0---||--5----------------||
Comments