Ozzy Osbourne - Crazy Train Chords & Tabs

 

Crazy Train Chords & Tabs

Ozzy Osbourne Chords & Tabs

Version: 13 Type: Tab 0 ratings
1 star 2 stars 3 stars 4 stars 5 stars
comments

Crazy Train Tab

   
-----------------------------------------------------------------------------
			 Crazy Train - Ozzy Osbourne
-----------------------------------------------------------------------------

Tabbed by: Bam
Email: sk8terbam89@aol.com

OK I KNOW YOUR GETTIN SICK OF ME BY NOW BUT I KEEP FINDIN LITTLE ITTY BITTY 
MISTAKES SO I HAFTA CORRECT THEM. ONCE AGAIN I HOPE U LOVE THIS TAB..IT TOOK 
ME FOREVER TO DO AND I HOPE I DIDNT DO THIS TAB FOR NOTHING. FEEL FREE TO EMAIL
ME WITH COMMENTS OR QUESTIONS BUT PUT "TAB" IN THE SUBJECT LINE OR ILL PROBABLY DELETE IT.

Tuning: standard (eBGDAE)

 INTRO PART 1                              INTRO PART 2
e|---------------------------------|      |------------------------|
B|---------------------------------|      |------------------------|
G|---------------------------------|PLAY  |-------------------7--9-|
D|---------------------------------|  3   |-------------------7--9-|
A|-----4---5---4---2-------2-------|TIMES |-----4---5---4-----5--7-|
E|-2-2---2---2---2---5-4-5---5-4-0-|      |-2-2---2---2---2--------|
   ................................         ...............

VERSE
e|-----------------------------------------------|
B|---------5---------5---------3-----------------|
G|---------6---------4---------2---------2-------|PLAY
D|---------7---------6---------4---------2-------|  1
A|-0-0-0-0---0-0-0-0---0-0-0-0---0-0-0-0-0-------|TIME
E|-------------------------------------------4/5-|
   .......   .......   .......   .......

e|-------------------------------------------------------------|
B|---------5---------5---------3-------------------------------|
G|---------6---------4---------2---------2---4p2p0-------------|PLAY
D|---------7---------6---------4---------2---------4p2p0-------|  1
A|-0-0-0-0---0-0-0-0---0-0-0-0---0-0-0-0-0---------------4p2p0-|TIME
E|-------------------------------------------------------------|
   .......   .......   .......   .......

e|-----------------------------------------------|      |--------|
B|---------5---------5---------3-----------------|      |--------|YOU CAN 
G|---------6---------4---------2---------2-------|PLAY  |-2------|PLAY THIS
D|---------7---------6---------4---------2-------| 7    |-2------|INSTEAD 
A|-0-0-0-0---0-0-0-0---0-0-0-0---0-0-0-0-0-------|TIMES |-0------|OF
E|-------------------------------------------4/5-|      |-----3~-| E|--4/5-|
   .......   .......   .......   .......

e|--------------------------------|
B|-----5-----5-----3--------------|AFTER THE
G|-----6-----4-----2-------2------|7TH TIME 
D|-----7-----6-----4-------2--ps\-|PLAY THIS
A|-0-----0-----0-----------0--ps\-|
E|-------------------0-4----------|
  ..    ..     ..    ...

CHORUS
e|-------------2------------------------2--------------|
B|-------------3------------------------3--------------|
G|-------------2-----7+\/---------------2--------------|
D|-4-4-4---4-4-0---7+-------4-4-4---4-4-0----0-0-------|
A|-4-4-4---4-4--------------4-4-4---4-4----------4\2---|
E|-2-0-2---2-0--------------2-0-2---2-0----------------|

e|---------------------|
A|---------------------|
G|-2-2-----------------|
D|-2-2------2-2--------|
A|-0-0------2-2--------|
E|------4-2-0-0--4-4-0-|

CHORUS FILL 1
e|------2-----------------------------------------------------|
B|----2---5p2h3p2---2-----------------------------------------|This is the
G|-4^-------------5---5p2h4p2---2-----------------------------|VERY fast fill
D|----------------------------4---4p2---2---------------------|played in the
A|------------------------------------4---4p2-2h3p2h3p2h3p2p0-|first chorus
E|------------------------------------------------------------|

END OF CHORUS
e|--------------------------------------------------------------------------|
B|--------------------------------------------------------------------------|
G|-2-2----------------------------------2------------------------------7--9-|
D|-2-2------2-2---------4-4-4-----------2--------------4-4-4-----------7--9-|
A|-0-0------2-2---------4-4-4-----------0------2-------4-4-4-----------5--7-|
E|------4-2-0-0--4-4-0--2-0-2-2+-2+-2-4----4-2-0-2-4~--2-0-2-2+-2+-2-4------|

e|-------|
B|-------|
G|-------|
D|-------|
A|-------|
E|-0-2-4-|

 CHORUS FILL 2
e|----------|                              |------------------|
B|-11p8-----|CONTINUE THIS PATTERN         |-22p19------------|
G|------8/9-|ALL THE WAY UP THE FRETBOARD  |-------19/20------|
D|----------|IN HALF STEPS UNTIL......     |------------------|
A|----------|                              |------------------|
E|----------|                              |-------------22\0-|
[ Tab from: http://www.guitartabs.cc/tabs/o/ozzy_osbourne/crazy_train_tab_ver_13.html ]
BRIDGE BEFORE SOLO
e|-----------------------------------------------------------------------|
B|-----------------------------------------------------------------------|
G|--------2-2--------------------7-7-----9-9----11-11\---2-2-------------|
D|-4-4\---2-2-------------4-4\---7-7-----9-9----11-11\---2-2-------------|
A|-4-4\---0-0-----2-2-----4-4\---5-5-----7-7-----9--9\---0-0-----2-2-----|
E|-2-2\-------4-2-0-0-4-0-2-2\-------0-0-----0-0-------------4-2-0-0-4-0-|
              ...     ...            ...     ...             ...     ...

e|--------------|
B|--------------|
G|--------7---9-|
D|-4-4\---7---9-|
A|-4-4\---5---7-|
E|-2-2\---------|

SOLO
e|--T------------T------------T------------T-----------|
B|-14p10p7h10p7-14p10p7h10p7-14p10p7h10p7-14p10p7h10p7-|
G|-----------------------------------------------------|
D|-----------------------------------------------------|
A|-----------------------------------------------------|
E|-----------------------------------------------------|

e|--T------------T------------T------------T-----------|
B|-15p10p7h10p7-15p10p7h10p7-15p10p7h10p7-15p10p7h10p7-|
G|-----------------------------------------------------|
D|-----------------------------------------------------|
A|-----------------------------------------------------|
E|-----------------------------------------------------|

e|---------------------------------------------------------------|
B|------T-----T-----T-----T-----T-----T-----T-----T---------10---|
G|-11^-14p11-14p11-14p11-14p11-14p11-14p11-14p11-14p11p9--9^---9^|
D|---------------------------------------------------------------|
A|---------------------------------------------------------------|
E|---------------------------------------------------------------|
    ***************************************************   ****

e|-17-16-14------14-16-17-17^~-14-17p14----14-------------------------------|
B|----------17^~------------------------17----17p14-15p14-15p14----14-------|
G|--------------------------------------------------------------16----16p14-|
D|--------------------------------------------------------------------------|
A|--------------------------------------------------------------------------|
E|--------------------------------------------------------------------------|
         
                              T     T     T     T     T     T 
e|---------------------------17p14-17p14-17p14-17p14-17p14-17p14-|
B|-----17--------------14h17-------------------------------------|
G|-16^----16^-14-14h16-------------------------------------------|
D|---------------------------------------------------------------|
A|---------------------------------------------------------------|
E|---------------------------------------------------------------|
    *****
 
    T     T     T     T     T     T     T     T     T     T  
E|-18p15-19p16-21p17-21p17-21p17-21p17-21p17-21p17-20p17-20p17-|
B|-------------------------------------------------------------|
G|-------------------------------------------------------------|
D|-------------------------------------------------------------|
A|-------------------------------------------------------------|
E|-------------------------------------------------------------|
    T     T     T     T     T     T        T     T  
e|-19p16-19p16-19p16-19p16-19p16-19p16p14-15p14-15p14-----17-----|
B|----------------------------------------------------17^----17^-|
G|---------------------------------------------------------------|
D|---------------------------------------------------------------|
A|---------------------------------------------------------------|
E|---------------------------------------------------------------|

e|----------------------------------------------------------|
B|-15-14----------------------------------------------------|
G|-------16-14----------14----------14----------14----------|
D|-------------16p14-------16p14-------16p14-------16p14----|
A|-------------------16----------16----------16----------16-|
E|----------------------------------------------------------|

e|----------------------------|
B|----------------------------|
G|-13h14p13h14p13h14p13h14h16-|
D|----------------------------|
A|----------------------------|
E|----------------------------|

e|----------------------------------------------------14----17-19-19^-19~-|
B|----------------------------------------------14h17////19---------------|
G|-------------------------------------13h14h16---------------------------|
D|-------------------11h12h14-13h14h16------------------------------------|
A|----------12h14h16------------------------------------------------------|
E|-12h14h16---------------------------------------------------------------|



SONG ORDER

INTRO
VERSE
CHORUS (WITH FILL 1)
END OF CHORUS
VERSE
CHORUS (WITH FILL 2)
END OF CHORUS
BRIDGE BEFORE SOLO
SOLO
INTRO
VERSE
CHORUS (WITH FILL 2)
END OF CHORUS
BRIDGE BEFORE SOLO (THIS TIME ITS THE ENDING)



| ps pick slide
| ^~ vibrato during bend
| *  hold bend
| T  right hand fret tap
| ^  full bend
| \/ tremolo dive
| .  light palm mute with picking hand
| /  slide up
| \  slide down
| h  hammer-on
| p  pull-off
| ~  vibrato
| +  harmonic
| x  Mute note
=============================================================================
Comments