Ozzy Osbourne - Crazy Train Chords & Tabs

 

Crazy Train Chords & Tabs

Ozzy Osbourne Chords & Tabs

Version: 4 Type: Bass Tab 0 ratings
1 star 2 stars 3 stars 4 stars 5 stars
comments

Crazy Train Bass Tab

Intro                             Intro End
G|----------------------------|   |------|
D|----------------------------|   |------|
A|--------------------5-5-----|   |-5--7-|
E|-2-2--5-5--0-0--2-2-----0-0-|   |------|

Verse
G|------------------|
D|----------7-6-4-2-|
A|-0-0-0-0-0-0-0-0--|
E|------------------|

Chorus
G|-------------------------------------------|
D|-----------0---------------------0---------|
A|-------------------------------------------|
E|-2-0-2--2-0--0245420---2-0-2--2-0--0245420-|

G|------------------------------------|
D|---------------------4-4-4-4-4-4-4--|
A|-0----------------------------------|
E|----4-2-0--2-4--2-2-2-2-2-2-2-2-2-2-|

G|------------------------------------------------------|
D|-------------------------------------------------0--2-|
A|-0------------------------0---------------------------|
E|----4-2-0--2-4-2-0-2--2-4---4-2-0-2-4-2-0-2--2-4------|

Verse
G|------------------|
D|----------7-6-4-2-|
A|-0-0-0-0-0-0-0-0--|
E|------------------|

Chorus
G|-------------------------------------------|
D|-----------0---------------------0---------|
A|-------------------------------------------|
E|-2-0-2--2-0--0245420---2-0-2--2-0--0245420-|

G|------------------------------------|
D|---------------------4-4-4-4-4-4-4--|
A|-0----------------------------------|
E|----4-2-0--2-4--2-2-2-2-2-2-2-2-2-2-|

G|------------------------------------------------------|
D|-------------------------------------------------0--2-|
A|-0------------------------0---------------------------|
E|----4-2-0--2-4-2-0-2--2-4---4-2-0-2-4-2-0-2--2-4------|

Intro                             Intro End
G|----------------------------|   |------|
D|----------------------------|   |------|
A|--------------------5-5-----|   |-5--7-|
E|-2-2--5-5--0-0--2-2-----0-0-|   |------|

Bridge 
G|-----------------------------------------------------------------|
D|-----------------------------------------------------------0-2-3-|
A|-9-9-9-9-9-9-7-7-5-5-5-5-5-5-------------------------0-2-4-------|
E|-----------------------------9-9-7-7-7-7-5-5-4-0-2-4-------------|
[ Tab from: http://www.guitartabs.cc/tabs/o/ozzy_osbourne/crazy_train_btab_ver_4.html ]
G|-----------------------------------------------------------------|
D|-4-4-4-4-4-4-2-2-0-0-0-0-0-0-------------------------------0-2-3-|
A|-----------------------------4-4-2-2-2-2-0-0---------0-2-4-------|
E|---------------------------------------------4-0-2-4-------------|

G|-----------------------------------------------------------------|
D|-4-4-4-4-4-4-2-2-0-0-0-0-0-0-------------------------------0-2-3-|
A|-----------------------------4-4-2-2-2-2-0-0---------0-2-4-------|
E|---------------------------------------------4-0-2-4-------------|

G|---------------------------------------------------------------|
D|-4-4-4-4-4-4-2-2-0-0-0-0-0-0-----------------------------------|
A|-----------------------------4-4-2-2-2-2-0-0-------------------|
E|---------------------------------------------4-0-0-0-0-0-0-0-0-|

Intro                             Intro End
G|----------------------------|   |------|
D|----------------------------|   |------|
A|--------------------5-5-----|   |-5--7-|
E|-2-2--5-5--0-0--2-2-----0-0-|   |------|

Verse
G|------------------|
D|----------7-6-4-2-|
A|-0-0-0-0-0-0-0-0--|
E|------------------|

Chorus
G|-------------------------------------------|
D|-----------0---------------------0---------|
A|-------------------------------------------|
E|-2-0-2--2-0--0245420---2-0-2--2-0--0245420-|

G|------------------------------------|
D|---------------------4-4-4-4-4-4-4--|
A|-0----------------------------------|
E|----4-2-0--2-4--2-2-2-2-2-2-2-2-2-2-|

G|------------------------------------------------------|
D|-------------------------------------------------0--2-|
A|-0------------------------0---------------------------|
E|----4-2-0--2-4-2-0-2--2-4---4-2-0-2-4-2-0-2--2-4------|

Outro (Fade out)                                              Outro (No Fade)   
G|----------------------------|                               |-----------|
D|----------------------------|                               |-----------|
A|--------------------5-5-----|    Live Tribute Album ends:   |-5--7------|
E|-2-2--5-5--0-0--2-2-----0-0-|                               |------2-2--|
Comments