Ozzy Osbourne - Crazy Train Chords & Tabs

 

Crazy Train Chords & Tabs

Ozzy Osbourne Chords & Tabs

Version: 3 Type: Bass Tab 0 ratings
1 star 2 stars 3 stars 4 stars 5 stars
comments

Crazy Train Bass Tab

----------------------
Artist:Ozzy Osbourne  
Song:Crazy Train      
Album: Blizzard of Ozz
----------------------   
(E,A,D,G)---Standard Tuning
    
Intro:

G:|--------------------|
D:|--------------------|
A:|--------------------|
E:|2-2---5-5--0-0--2-2-|
[ Tab from: http://www.guitartabs.cc/tabs/o/ozzy_osbourne/crazy_train_btab_ver_3.html ]
Intro2:
G:|---------------------------------------------------------------|
D:|---------------------------------------------------------------|
A:|-5-5----------------------------5-5----------------------------|
E:|------0-0--2-2--5-5--0-0--2-2-------0-0--2-2--5-5--0-0--2-2----|

Intro3:
G:|-------------------------------------|
D:|-------------------------------------|
A:|-5-5---------------------------5--7--|
E:|------0-0--2-2--5-5--0-0--2-2--------|


First Riff:
G:|---------------------------------|
D:|---------------7-7-7---4---------|
A:|---------------------------7-----|
E:|--5--5--5--5---------------------|
   
    
G:|---------------------------------|
D:|---------------------------------|
A:|---------------------------------|
E:|--2-0-2--4-5-5-5--0-2-4-5-4-2-0--|
Comments