Ozzy Osbourne - Crazy Train Chords & Tabs

 

Crazy Train Chords & Tabs

Ozzy Osbourne Chords & Tabs

Version: 2 Type: Bass Tab 0 ratings
1 star 2 stars 3 stars 4 stars 5 stars
comments

Crazy Train Bass Tab

-------------------------------------------------------------------------------
			     crazy train - ozzy osbourne
-------------------------------------------------------------------------------

By:Zero
Standard or right tunning(EADG)

ok, this song is probably older then most peeps who come here, but it still rocks,
i got the part for the bass down, i just need to get the part for the guitar and then
i will be set, well here is what i got.
[ Tab from: http://www.guitartabs.cc/tabs/o/ozzy_osbourne/crazy_train_btab_ver_2.html ]
Bass:Intro/natrual wound.../outro
G|---------------------------------------------------------------------------|
D|---------------------------------------------------------------------------|
A|-------0-0------------2-2------------0-0-----------------------------------|
E|-2-2--------0-0--2-2-------0-0--2-2-------0-0--2-2-------------------------|

Bass:verse
e|---------------------------------------------------------------------------|
B|---------------------------------------------------------------------------|
G|---------------------------------------------------------------------------|
D|---------------------------------------------------------------------------|
A|---0-----5-4-2-0-----------------------------------------------------------|
E|-2---0-2-------------------------------------------------------------------|



===============================================================================

Comments