Ozzy Osbourne - Crazy Train Chords & Tabs

 

Crazy Train Chords & Tabs

Ozzy Osbourne Chords & Tabs

Version: 1 Type: Bass Tab 1 rating
1 star 2 stars 3 stars 4 stars 5 stars
comments

Crazy Train Bass Tab

   
                             CRAZY TRAIN (Bassline)
                          As recorded by Ozzy Osbourne
                      (From the 1981 Album BLIZZARD OF OZZ)

Words and Music by Ozzy Osbourne, Randy Rhoads & Bob Daisley
Gtr I (E A D G) - 'Bob Daisley Bass'

   Intro
    Q=138
   4/4
    Gtr I
    E E Q  H      E E Q  E E Q    E E Q  H
||--------------|---------------|-------------|
||o-------------|---------------|-------------|
||o-------------|-0-0-----------|-------------|
||--2-2---------|--------0-0----|-2-2---------|


 1.,2.,3.           4.
  E E Q  E E Q      S E S E S S S S S S E E
|----------------||----------------------------|
|---------------o||----------------------------|
|-5-5-----------o||-5-5-5-5-5-5----------------|
|--------0-0-----||-------------0-0-0-0-0-0----|


  $$
  Q  Q  Q  Q    E E E E E E E E   Q  Q  Q  Q    E E E E E E E E
|-------------|-----------------|-------------|------------------||
|-7--7--7--7--|---7---6---4-----|-7--7--7--7--|---7---6---4------||
|-0--0--0--0--|-0---0---------7-|-0--0--0--0--|-0---0---------7--||
|-------------|-----------------|-------------|------------------||


   Verses
    $
    Q  Q  Q  Q    E E E E E E E E   Q  Q  Q  Q    E E E E E E E E  4x
||--------------|-----------------|-------------|------------------||
||o-7--7--7--7--|---7---6---4-----|-7--7--7--7--|---7---6---4-----o||
||o-0--0--0--0--|-0---0---------7-|-0--0--0--0--|-0---0---------7-o||
||--------------|-----------------|-------------|------------------||


 Pre-Chorus
  E E Q  E E E E   +E  E E E E E E E   E E Q  E E S S E   +E  E E E E E E E
|----------------|-------------------|------------------|-------------------||
|----------------|-------------------|------------------|-------------------||
|--------------5-|-(5)---------------|----------------5-|-(5)---------------||
|-2-0-2----2-2---|-----2-3-4-5-4-3-2-|-2-0-2----2-2p0---|-----2-3-4-5-4-2-0-||


 Chorus
  Q  Q  E E E E   +Q   Q  A E E E E   E E E E E E E E   E E E E E E E E
|---------------|-------------------|-----------------|-----------------|
|---------------|-------------------|-----4---4---4---|-4---4---4---4---|
|---------------|---------1s2-------|-----------------|-----------------|
|-5--5--5-4-2-0-|-(0)--0------4-4-5-|-2-2---2---2---2-|---2---2---2---2-|


  Q  Q  E E E E   +E  E Q  A E E E E   E E q  E E E E
|---------------|--------------------|----------------|
|---------------|--------------------|----------------|
|-0--0--0-------|----------1s2-------|----------------|
|---------4-2-0-|-(0)-0-0------4-4-5-|-2-0-2----2-4-5-|


                               To Coda
                               To Coda
                  ~
  +E  E E E +E  E Q    E E q  E E E E
|--------------------|-----------------|
|--------------------|-----------------|
|--------------------|--------------5--|
|-(5)-4-2-0-(0)-2-4--|-2-0-2----2-2----|


  +E  E E E +Q   E E   Q  Q  Q  Q
|--------------------|-------------|
|--------------------|-7--7--7--7--|
|-(5)-5-5------------|-0--0--0--0--|
|---------0-(0)--0-0-|-------------|


                                       D.S. al Coda
  E E E E E E E E   Q  Q  Q  Q    E E E E E E E E
|-----------------|-------------|-------------------||
|---7---6---4-----|-7--7--7--7--|---7---6---4-------||
|-0---0---------7-|-0--0--0--0--|-0---0---------7---||
|-----------------|-------------|-------------------||


                        Bridge
  &
   E  E E E +E  E E E    E E Q  H
|---------------------||-------------|
|---------------------||-------------|
|-(5)-5-5-------------||-------------|
|---------0-(0)-0-0-0-||-2-2---------|

[ Tab from: http://www.guitartabs.cc/tabs/o/ozzy_osbourne/crazy_train_btab.html ]
  E E Q  E E Q    E E Q  H      E E E E E E E E
|---------------|-------------|-------------------|
|---------------|-------------|-------------------|
|-0-0-----------|-------------|-5-5---------------|
|--------0-0----|-2-2---------|-------0-0-0---0---|


  E E Q  H      E E Q  E E Q    E E Q  H
|-------------|---------------|-------------|
|-------------|---------------|-------------|
|-------------|-0-0-----------|-------------|
|-2-2---------|--------0-0----|-2-2---------|


                  Guitar Solo
  Q  Q  Q  E E      Q  E E S S S S E E
|--------------||----------------------|
|--------------||o-/4--4-4-4-4-4-4-2-2-|
|-5--5---------||o---------------------|
|-------0--0-0-||----------------------|


  Q  E S S E E E E   E S S E E E E E E
|------------------|-------------------|
|------------------|-------------------|
|-5--5-5-5-5-5-4-4-|-2-2-2-2-2---------|
|------------------|-----------5-5-4-4-|


  E E E E E E E E   E. S S S E S S S S S S E
|-----------------|----------------------------|
|-----------------|-4--4-4-4-4-4-4-4-4-2-2-2---|
|-----------------|----------------------------|
|-2-2-2-2-2-2-2-2-|----------------------------|


  E S S E E S S S S E E   E S S Q  E E E E
|-----------------------|------------------|
|-----------------------|------------------|
|-5-5-5-5-5-5-5-5-5-4-4-|-2-2-2-2----------|
|-----------------------|----------5-5-4-4-|


 1.                   2.
  E E E E E E E E     E E E E E E E E
|------------------||------------------||
|-----------------o||------------------||
|---------0-2-4-5-o||------------------||
|-2-0-2-4----------||-0-0-0-0-0-0-0-0--||


    E E Q  H      E E Q  E E Q    E E Q  H
||--------------|---------------|-------------|
||o-------------|---------------|-------------|
||o-------------|-0-0-----------|-------------|
||--2-2---------|--------0-0----|-2-2---------|


 1.                 2.
                     D.S.S. al Dbl. Coda
  E E Q  E E Q      Q  S S S S E E E E
|----------------||----------------------||
|---------------o||----------------------||
|-5-5-----------o||-5--5-5-5-5-----------||
|--------0-0-----||------------0-0-0-0---||


                         Outro
  &&
   E  E E E +E  E E E     E Q.   H
|---------------------||--------------|
|---------------------||o-------------|
|-(5)-5-5-------------||o-------------|
|---------0-(0)-0-0-0-||--2-2\--------|


  E E E E E E Q    E Q.   H      E E E E E E E E    3x
|----------------|-------------|--------------------||
|----------------|-------------|-------------------o||
|-0-0------------|-------------|-5-5---------------o||
|-------2-0-0----|-2-2\--------|-------0-0-0---0----||


Duration Legend
---------------
W - whole; H - half; Q - quarter; E - 8th; S - 16th; T - 32nd; X - 64th; a - acciaccatura
+ - note tied to previous; . - note dotted; .. - note double dotted
Uncapitalized letters represent notes that are staccato (1/2 duration)
Irregular groupings are notated above the duration line
Duration letters will always appear directly above the note/fret number it represents the
duration for.  Duration letters with no fret number below them represent rests.  Multi-
bar rests are notated in the form Wxn, where n is the number of bars to rest for.  Low
melody durations appear below the staff

Tablature Legend
----------------
 h   - hammer-on
 p   - pull-off
 b   - bend
 pb  - pre-bend
 r   - bend release (if no number after the r, then release immediately)
 /\  - slide into or out of (from/to "nowhere")
 s   - legato slide
 S   - shift slide
  - natural harmonic
[n]  - artificial harmonic
n(n) - tapped harmonic
 ~   - vibrato
 tr  - trill
 T   - tap
 TP  - trem. picking
 PM  - palm muting
\n/  - tremolo bar dip; n = amount to dip
 \n  - tremolo bar down
 n/  - tremolo bar up
/n\  - tremolo bar inverted dip
 =   - hold bend; also acts as connecting device for hammers/pulls
 <>  - volume swell (louder/softer)
 x   - on rhythm slash represents muted slash
 o   - on rhythm slash represents single note slash

Misc Legend
-----------
 |  - bar
||  - double bar
||o - repeat start
o|| - repeat end
*|  - double bar (ending)
 :  - bar (freetime)
 $  - Segno
 &  - Coda
Tempo markers -  = BPM(8/16=s8/s16), where s8 = swing 8ths, s16 = swing 16th
Comments