Ozzy Osbourne - Crazy Babies Chords & Tabs

 

Crazy Babies Chords & Tabs

Ozzy Osbourne Chords & Tabs

Version: 1 Type: Tab 0 ratings
1 star 2 stars 3 stars 4 stars 5 stars
comments

Crazy Babies Tab

Ozzy Osbourne-Crazy Babies


Intro:
----------------------------------------------------------------------------|
----------------------------------------------------------------------------|
------------------------------2--------------------2---------2--------------|
------------------------------2--------------------2---------2--------------|
---2-------------2-2-2--------0---2---------2------0---------0--------------|
---0-------------0-0-0--0--3------0---------0--3-------3b-------------------|
[ Tab from: http://www.guitartabs.cc/tabs/o/ozzy_osbourne/crazy_babies_tab.html ]
first four bars of solo:
-----------------------------------------------------------------------------|
---------------------------------------12-----10------11------10----9------7-|
---7-7-7-7b-----7-7-7-7b-----------------------------------------------7b--7-|
-------------9------------9h(9)h(9)-9-----10------11------10------9----------|
-----------------------------------------------------------------------------|
-----------------------------------------------------------------------------|

----------------------------------------------------------------------------|
----------------------------------------------------------------------------|
---7-7-7-7b-----7-7-7-7b----------9b-(9)h7--21(9)b-(21)h(9)h(9)-(9)h7---9---|
-------------9------------9h(9)---------------------------------------------|
----------------------------------------------------------------------------|
----------------------------------------------------------------------------|

from:Dillon Shifflett
Comments