Ozma - You Know The Story Chords & Tabs

 

You Know The Story Chords & Tabs

Ozma Chords & Tabs

Version: 1 Type: Tab 0 ratings
1 star 2 stars 3 stars 4 stars 5 stars
comments

You Know The Story Tab

#----------------------------------PLEASE NOTE--------------------------------#
#This file is the author's own work and represents their interpretation of the#
#song. You may only use this file for private study, scholarship, or research.#
#-----------------------------------------------------------------------------#
#-- File created with Instab - http://www.pconline.com/~smcarey/instab.html --#
#-----------------------------------------------------------------------------#

Author/Artist: Ozma
Title: You Know the Story
Album: DDD
Transcribed by: Mike Ivanco
Email: fentoozer68@hotmail.com

1/2 step tuning

------------------------------------------------------------------------------
------------------------------------------------------------------------------
-7-----4-2--------------------------------------------------------------------
-7-2-4-4-2-4------------------------------------------------------------------
-5-2-4-2-0-4------------------------------------------------------------------
---0-2-----2------------------------------------------------------------------
 rhythm (intro)     guitar1                                                   

-10--------------------7-9-----7-----------5----------------------------------
----10-7-9h10p9-7-9-10-----------8-5-----5---8-7------------------------------
-------------------------------------7-6--------------------------------------
------------------------------------------------------------------------------
------------------------------------------------------------------------------
------------------------------------------------------------------------------
 keyboard(intro)    guitar2                                                   

------------------------------------------------------------------------------
------------------------------------------------------------------------------
---4-5-7-----4-5-7-4----------------------------------------------------------
-5-4-5-7-5-2-4-5-7-4----------------------------------------------------------
-5-2-3-5-5-2-2-3-5-2----------------------------------------------------------
-3-------3-0------------------------------------------------------------------
 rhythm             guitar1                                                   

-10-7-10-11-7-11-12----------------10-----------------------------------------
--------------------13----------------13-12-----------------------------------
-----------------------14-12-11-14--------------------------------------------
------------------------------------------------------------------------------
------------------------------------------------------------------------------
------------------------------------------------------------------------------
                    guitar2                                                   

------------------------------------------------------------------------------
------------------------------------------------------------------------------
---4-5-7---------------------------------4-5-4--------------------------------
-5-4-5-7-------------------------------5-4-5-4--------------------------------
-5-2-3-5-------------------------------5-2-3-2--------------------------------
-3-------------------------------------3--------------------------------------
 verse (check her out.......)          had my chance......                    
[ Tab from: http://www.guitartabs.cc/tabs/o/ozma/you_know_the_story_tab.html ]
------------------------------------------------------------------------------
------------------------------------------------------------------------------
-9-10-9-7-5-7-----------------------------------------------------------------
-9-10-9-7-5-7-----------------------------------------------------------------
-7-8--7-5-3-5-----------------------------------------------------------------
------------------------------------------------------------------------------
 whats so wrong.......                                                        

------------------------------------------------------------------------------
------------------------------------------------------------------------------
---5-7-5----------------------------------------------------------------------
-5-5-7-5----------------------------------------------------------------------
-5-3-5-3----------------------------------------------------------------------
-3----------------------------------------------------------------------------
 you know the story......                                                     

------------------------------------------------------------------------------
------------------------------------------------------------------------------
------------------------------------------------------------------------------
-2-2-2------------------------------------------------------------------------
-2-2-2------------------------------------------------------------------------
-0-0-0------------------------------------------------------------------------
 part after chorus                                                            

-7-10-------------------------------------------------------------------------
------8-7-10------------------------------------------------------------------
-------------7-9-11-12--------------------------------------------------------
------------------------------------------------------------------------------
------------------------------------------------------------------------------
------------------------------------------------------------------------------
 keyboard                                                                     

------------------------------------------------------------------------------
------------------------------------------------------------------------------
------------------------------------------------------------------------------
-5-7-9-10-11-12-13----2-4-5---------------------------------------------------
-5-7-9-10-11-12-13----2-4-5---------------------------------------------------
-3-5-7-8--9--10-11----0-2-3---------------------------------------------------
 astronaut            as long as you                                          

-10-9-10-12-8-7-8-7-5-7-3-5-3-5-3-2-3/12-3-2-0-2-3----------------------------
------------------------------------------------------------------------------
------------------------------------------------------------------------------
------------------------------------------------------------------------------
------------------------------------------------------------------------------
------------------------------------------------------------------------------
 keyboard part for  astronaut verse                                           

------------------------------------------------------------------------------
------------------------------------------------------------------------------
------------------------------------------------------------------------------
-22-22-2----------------------------------------------------------------------
-22-22-2----------------------------------------------------------------------
-00-00-0----------------------------------------------------------------------
 ending                                                                       

Comments