Ozma - Utsukushii Shibuya Chords & Tabs

 

Utsukushii Shibuya Chords & Tabs

Ozma Chords & Tabs

Version: 1 Type: Bass Tab 0 ratings
1 star 2 stars 3 stars 4 stars 5 stars
comments

Utsukushii Shibuya Bass Tab

   
Artist: Ozma
Song: Utsukushii Shibuya
Album: Spending Time on the Borderline
Kung Fu Records

Tuning: half-step down (Gb Db Ab Eb)


Main riff:
Gb|-------------9h11-9-----------------|
Db|------------------------------------|
Ab|-0--7h9-7-0---------0--7h9-7-0------|
Eb|--------------------------------2-0-|
    8x       8x        8x       8x 


Flute part:
Gb|-----2------------|
Db|---2-----2--0-0-0-|
Ab|-0----------------|
Eb|------------------|


Verse #1:
Gb|-------------------------1--------------|
Db|-----0---2-------0---2-------4---0---2--|
Ab|-0-----------0--------------------------|
Eb|----------------------------------------|
    8x  8x  8x  8x  8x  8x  8x  8x  16x 4x

Gb|-------------1-2---|
Db|-0h2-2p0h2-4-----2-|
Ab|-------------------|
Eb|-------------------|
                    8x             

[ Tab from: http://www.guitartabs.cc/tabs/o/ozma/utsukushii_shibuya_btab.html ]
Verse #2:
Gb|-------------------------1--------------|
Db|-----0---2-------0---2-------4---0---2--|
Ab|-0-----------0--------------------------|
Eb|----------------------------------------|
    8x  8x  8x  8x  8x  8x  8x  8x  8x  8x


Chorus: ("I love you so..." part)
Gb|-------------------------------|
Db|-------------------------------|
Ab|-0-0-0-0--------2-2-2-2--------|
Eb|---------2-2-2----------0-0-0--|


Verse #3:
Gb|---------------------------------|
Db|------(2)------(2)------(0)--2---|
Ab|-0--------0----------------------|
Eb|--------0--------0--3------------|
                            16x 16x         

Order:
    Main riff x3
    Flute part 
    Verse #1 
    Verse #2 
    Flute part x2
    Verse #2 
    Chorus x4
    Main riff x2
    Verse #3 
    Verse #2
    Chorus x4
    Main riff (to end)

End with variation on the main riff

Tabbed by Bakkster
Comments