Ozma - Tetris Theme Chords & Tabs

 

Tetris Theme Chords & Tabs

Ozma Chords & Tabs

Version: 1 Type: Tab 0 ratings
1 star 2 stars 3 stars 4 stars 5 stars
comments

Tetris Theme Tab

-------------------------------------------------------------------------------
			     “Tetris Theme” Ozma
-------------------------------------------------------------------------------

By: PooPoo Kitty Dana and Page
[ Tab from: http://www.guitartabs.cc/tabs/o/ozma/tetris_theme_tab.html ]
E|------------------------------------------------------------------------------|
B|--4--------------------------------4-----------------------4----------------|
G|-------3--4--6--4--3---------4------6--4--3--3--4--6-----4-----4------|
D|-------------------------6--6------------------------------------6-----6---|
A|-----------------------------------------------------------------------------|
E|-----------------------------------------------------------------------------|

E|---------4---------------4---------------------------------------------------|
B|-----5-----7--5--4--4-----4------------------------4----------------------|
G|--6-----------------------------6--4--3--3--4--6------4------4-----------|
D|--------------------------------------------------------------6-----6-------|
A|-----------------------------------------------------------------------------|
E|-----------------------------------------------------------------------------|

Comments