Ozma - Rocks Chords & Tabs

 

Rocks Chords & Tabs

Ozma Chords & Tabs

Version: 1 Type: Tab 0 ratings
1 star 2 stars 3 stars 4 stars 5 stars
comments

Rocks Tab

#----------------------------------PLEASE NOTE---------------------------------#
#This file is the author's own work and represents their interpretation of the #
#song. You may only use this file for private study, scholarship, or research. #
#------------------------------------------------------------------------------##

Rocks-OZMA
Tabbed By: Michelle G. CyberPunk5000
This is one of the best songs on the album!

|-----------------------|
|-----------------------|
|*---------------------*|Repeat 16x
|*------4-6------------*|2nd time, Repeat 8x
|--4-4--2-4-------------|3rd time, Repeat 16x
|--2-2------------------|
[ Tab from: http://www.guitartabs.cc/tabs/o/ozma/rocks_tab.html ]
|-----------------------------------------------|
|-----------------------------------------------|
|----------------------------------------------*|
|------------4-4-4-4-4--6-6-6-6-6-4-4-4-4-4----*|x2
|-4-4-4-4-4--2-2-2-2-2--4-4-4-4-4-2-2-2-2-2-----|
|-2-2-2-2-2-------------------------------------|


Solo:
|--------------------------------------------------|
|--------------------------------------------------|
|-10-10-12-13-12-13-15-13-15-17-16-17-19-17-18-18-*|
|-------------------------------------------------*|
|--------------------------------------------------|
|--------------------------------------------------|
 I couldn't figure out the rest of the solo, but you
ever figure it out, post it! Later. cp5k
Comments