Ozma - Restart Chords & Tabs

 

Restart Chords & Tabs

Ozma Chords & Tabs

Version: 1 Type: Tab 0 ratings
1 star 2 stars 3 stars 4 stars 5 stars
comments

Restart Tab

#----------------------------------PLEASE NOTE--------------------------------#
#This file is the author's own work and represents their interpretation of the#
#song. You may only use this file for private study, scholarship, or research.#
#-----------------------------------------------------------------------------#
#-- File created with Instab - http://www.pconline.com/~smcarey/instab.html --#
#-----------------------------------------------------------------------------#

Author/Artist: ozma
Title: restart
Album: spending time on the borderline
Transcribed by: ky
Email: ltdlao@aol.com

my first tab 
[ Tab from: http://www.guitartabs.cc/tabs/o/ozma/restart_tab.html ]
--------------------------000-0-----------------------------------------------
--------------------------101--0----------------------------------------------
-0-------0--0--------0----222-------------------------------------------------
-0h2-0-2--0-0h2--0-2--0---222-------------------------------------------------
------------------------2-000-------------------------------------------------
--------------------------000-------------------------------------------------
 verse ^                                                                      

-1--3--0--0--0-----2----------------------------------------------------------
-3--3--1--1--1-----3----------------------------------------------------------
-2--0--0--0--2-x2--2----------------------------------------------------------
-0--0--2--0--2-----0----------------------------------------------------------
-0--2--3--2--0-----0----------------------------------------------------------
-0--3--x--x--0-----0----------------------------------------------------------
 Ooooooo Ooooo part ^                                                         

Comments