Ozma - No One Needs To Know Chords & Tabs

 

No One Needs To Know Chords & Tabs

Ozma Chords & Tabs

Version: 1 Type: Tab 0 ratings
1 star 2 stars 3 stars 4 stars 5 stars
comments

No One Needs To Know Tab

   
Standard Tuning


Eb
No one needs to know (one needs to know)...

Chorus:
Bb5                      G5   F5
Know if a lover's being  faithful, one needs to
Bb5                     G5  F5
Know if a lover's being true, one needs to know
Bb5                     G5  F5
Know if a lover's being faithful, and
Eb5       F5
I'm being faithful, to you.

Verse 1

I don't know what you're thinking we should do
I don't know if the words you say are true
But let me tell you this tonight
The things we're doing just ain't right
And no one needs to know but me and you


Eb5
No one needs to know
Eb5
No one needs to know
Eb5
No one needs to know (one needs to know)

Repeat Chorus

Verse 2

Repeat Chorus 1
Solo

(underlying chords are G Bb C D)
e---------------------------------------------------------------|
B-11----10-11-10-------11----10-11-10-11-13-11-10-11-10---------|
G----12----------12-------12----------------------------12------|
D-------------------12------------------------------------------|
A---------------------------------------------------------------|
E---------------------------------------------------------------|
[ Tab from: http://www.guitartabs.cc/tabs/o/ozma/no_one_needs_to_know_tab.html ]
e----------------------------------------------------------11-13-|
B-11----10-11-10-------11----10-11-10-11-13-11-13-15-13-15-------|
G----12----------12-------12-------------------------------------|
D-------------------12-------------------------------------------|
A----------------------------------------------------------------|
E----------------------------------------------------------------|

e--18-15-17-18-17-15-----18-15-17-18-17-18-20-18-17-18-17-15----|
B--------------------15~----------------------------------------|
G---------------------------------------------------------------|
D---------------------------------------------------------------|
A---------------------------------------------------------------|
E---------------------------------------------------------------|

e------------------------------------11--------------11----------|
B--12h13p12h13p12h13p12h13p12--13b15-----13b14-13b15----13-11----|
G-------------------------------------------------------------12-|
D----------------------------------------------------------------|
A----------------------------------------------------------------|
E----------------------------------------------------------------|

 Eb5                           G5 A5 Bb5 F#5 G5 A5 Bb5 F#5
No          one needs to know
No          one needs to know
No          one needs to know
 Eb5
No one needs to know (one needs to know)

Repeat Chorus

e-5--------|
B-3--------|
G-3--------|
D-5--------|
A----------|
E----------|
Comments