Ozma - Lorraine Chords & Tabs

 

Lorraine Chords & Tabs

Ozma Chords & Tabs

Version: 1 Type: Tab 0 ratings
1 star 2 stars 3 stars 4 stars 5 stars
comments

Lorraine Tab

#----------------------------------PLEASE NOTE---------------------------------#
#This file is the author's own work and represents their interpretation of the #
#song. You may only use this file for private study, scholarship, or research. #
#------------------------------------------------------------------------------##
Tabbed By: Michelle G. CyberPunk5k
Band:      Ozma
Song:      Lorraine
Album:     

Intro/Bass:
||----------------------------------------------------||
||*-7-7-7-7-7---------------/9-9-9-9-9---------------*||
||*-----------7-9-9-9-9-9-9------------9-7-7-7-7-7-7-*||
||----------------------------------------------------||

[ Tab from: http://www.guitartabs.cc/tabs/o/ozma/lorraine_tab.html ]
||-----------9-7-------------------------------------------------------\
||--------10-----10-9-7-----------10-10b-9----9--7-9-10-9---9-7-9-10-9-/
||--6-7-9---------------9-7-6-7-9-------------------------6------------\
||---------------------------------------------------------------------/
||---------------------------------------------------------------------\
||---------------------------------------------------------------------/


                          \----------------------||
                          /-9--7-9-10-9---9-10---||
                          \-------------6------6-||
                          /----------------------||
                          \----------------------||
                          /----------------------||



Solo:

||-14-12-----------------------14-12-------------------------------||
||------14-12-14-12------------------14-12-14-12---12-14b-15-14-12-||
||------------------14-13-11-9------------------14-----------------||
||-----------------------------------------------------------------||
||-----------------------------------------------------------------||
||-----------------------------------------------------------------||
Comments