Ozma - Domino Effect Chords & Tabs

 

Domino Effect Chords & Tabs

Ozma Chords & Tabs

Version: 1 Type: Tab 0 ratings
1 star 2 stars 3 stars 4 stars 5 stars
comments

Domino Effect Tab

#----------------------------------PLEASE NOTE---------------------------------#
#This file is the author's own work and represents their interpretation of the #
#song. You may only use this file for private study, scholarship, or research. #
#------------------------------------------------------------------------------##
Tabbed By: Michelle G. CyberPunk5k
Song: Domino Effect

intro:
(this is played on the keys, but i tabbed it so it also can be  played on the guitar.)
|------------------------------------------------------
|------------------------------------------------------
|*-----------------------------------------------------
|*-7-5---7-7-8-5--5-3---5-5-7-3------------------------
|------7--------------6--------------------------------
|------------------------------------------------------

-------3-3-3-1-1-0----------1-1-1-0-0---0-------------|
-----3--------------------2-----------3---------------|
-3-3---------------1--1-1----------------------------*|
-----------------------------------------------------*|
------------------------------------------------------|
------------------------------------------------------|
[ Tab from: http://www.guitartabs.cc/tabs/o/ozma/domino_effect_tab.html ]
intro for the guitar:
|------------------------------------------------------------|
|------------------------------------------------------------|
|*----------------------------------------------------------*|
|*---------------4-4-4-4-4-4-4-4-----------------4-4-4-4-4-4*|
|4-4-4-4-4-4-4-4-2-2-2-2-2-2-2-2-2-2-2-2-2-2-2-2-5-5-5-5-5-5-|
|2-2-2-2-2-2-2-2-----------------0-0-0-0-0-0-0-0-------------|
 pm...........................................................

riff 2 (guitar and keys, i think)
|---------------------------------|
|---------------------------------|
|-3-4-3-1-------------7-8-5-4-5---|
|---------3-4-6-7-6-4-------------|
|---------------------------------|
|---------------------------------|

part 2 of riff 2 (you'll understand why there is a part 2 in riff 2 later in the song.)
|----------------------------|
|----------------------------|
|---6-7-5-4-5-4-2------------|
|-2---------------4-3-1------|
|-----------------------4----|
|----------------------------|

riff 3
|--------------------------------------|
|--------------------------------------|
|*------------------------------------*|
|*----------4-4-4-4---------4-4-4-4---*|
|---4-4-4-4-2-2-2-2-2-2-2-2-5-5-5-5----|
|---2-2-2-2---------0-0-0-0------------|

riff 4 (guitar and keys, i think)
|-------------------------------|
|-------------------------------|
|------------------1-0-1-3------|
|-7-5---7-7-8-5--5--------------|
|------7------------------------|
|-------------------------------|

outro:
|-----------------------------------------|
|-----------------------------------------|
|-----------------------------------------|
|------------------------4-4-4--6---------|
|-4-4-4-7-7-7--9---4-4-4-2-2-2--4---------|
|-2-2-2-5-5-5--7---2-2-2------------------|

here's the order of all this:
intro (keys)2x
intro (guitar)1x -play when the keys repeat.
riff 2
part 2 of riff 2
riff 3 x16 (i think)
riff 4

Comments