Ozark Mountain Daredevils - Standing On The Rock Chords & Tabs

 

Standing On The Rock Chords & Tabs

Ozark Mountain Daredevils Chords & Tabs

Version: 1 Type: Tab 0 ratings
1 star 2 stars 3 stars 4 stars 5 stars
comments

Standing On The Rock Tab

   
                             "Standing on a Rock"
                          Ozark Mountain Daredevils

Transcribed by Tony Stortini
seastort@sympatico.ca


Guitar 1 strums a G cord

Guitar 2:           "cnt"= count
                    (strum G for 2 bars)
                    (Then lead intro starts while Guitar 1 keeps
                      strumming the G cord)

                  G   Count 1,2,3,4, 1,2,3,4
------------------3--------------------------------------------|
------------------O----(strum for 2 bars or 8 beats)-----------|
------------------O--------------------------------------------|
------------------O--------------------------------------------|
------------------2--------------------------------------------|
0---1---2---3-----3--------------------------------------------|


Lead intro (guitar 2):

Cnt:1       2      3      4       1       2       3       4
    /       /      /      /       /       /       /       /
----------------------------------------------------------------|
---11--11--11--11-11--11--11--11--11--11--11--11--11--11--11-11-|
---12--12--12--12-12--12--12--12--12--12--12--12--12--12--12-12-|
----------------------------------------------------------------|
----------------------------------------------------------------|
----------------------------------------------------------------|

     (G)
Cnt:1        2       3       4      1       2       3      4
    /        /       /       /      /       /       /      /
----------------------------------------------------------------|
---11-sL-9---9---9---9---9---9--9---9---9---9---9---9---9--9--9-|
---12-SL1O--1O--1O--1O--1O--1O-1O--1O--1O--1O--1O--1O--1O-1O-1--|O
----------------------------------------------------------------|
----------------------------------------------------------------|
----------------------------------------------------------------|


(G)
Cnt:1        2       3       4      1       2       3      4
    /        /       /       /      /       /       /      /
----------------------------------------------------------------|
----9-sl-6---6---6---6---6---6--6---6---6---6---6---6---6--6--6-|
---1O-sl-7---7---7---7---7---7--7---7---7---7---7---7---7--7--7-|
----------------------------------------------------------------|
----------------------------------------------------------------|
----------------------------------------------------------------|

                 (G)
[ Tab from: http://www.guitartabs.cc/tabs/o/ozark_mountain_daredevils/standing_on_the_rock_tab.html ]
Cnt:1        2       3      4       1       2       3      4
    /        /       /      /       /       /       /      /
---------------------------------------------------------------|
----6-sl-3---3---3---3---3--3---3---3---3---3---3---3----------|
----7-sl-4---4---4---4---4--4---4---4---4---4---4---4----------|
-------------------------------------------------------O-------|
-----------------------------------------------------------2---|O
---------------------------------------------------------------|

(G)
Cnt:  1    2     3      4               1     2    3     4
      /    /     /      /               /     /    /     /
--------3-----3-----3--------------------------------------|
--------O-----O-----O------------------HOLD----------------|
--------O-----O-----O----------HAMMER---3------------------|
--------O-----O-----O--HAMMER--3-^-5-----------------------|
--------2-----2-----2---3-^-5------------------------------|
-----3-----3-----3-----------------------------------------|

 (G)

Cnt:  1       2       3       4
      /       /       /       /
----------------------------------------------------------|
----------------------------------------------------------|
----------------------------------------------------------|
----------------------------------------------------------|
----------------------------------------------------------|
----------------------------------------------------------|


                 (G)

Cnt:1                   2   3    4    1         2    3    4
    /                   /   /    /    /         /    /    /
---------------------7----------------------7--------------|
----strike-slide-to----------------------------------------|
----5---------------7-----------------5-sl-7---------------|
-----------------------------------------------------------|
-----------------------------------------------------------|
-----------------------------------------------------------|


(G)
1         2    3    4             1        2     3    4
/         /    /    /             /        /     /    /
-------7----5----7---------1O--1O--------7----5----7--------1--|O
---------------------------------------------------------------|
5-sl-7----5----7----7-sl-1O--1O---5-sl-7---5-----7---7 SL-1O---|
---------------------------------------------------------------|
---------------------------------------------------------------|
---------------------------------------------------------------|


                 (G)

Cnt: 1        2      3    4      1                   2        3
     /        /      /    /      /                   /        /
--1O--------7---5----3----1---1---------------------------------|
----------------------------------------------------------------|
1O---5-SL-7---5---4----2----2---------------O------------O------|
---------------------------------O-HAMMER-2---O-HAMMER-2--------|
-----------------------------------------------------------O----|
--------------------------------------------------------------3-|

"I BIN STANDIN ON A ROCK;;;WAITIN FOR MY"..............
Comments