Oxymoron - Run From Reality Chords & Tabs

 

Run From Reality Chords & Tabs

Oxymoron Chords & Tabs

Version: 1 Type: Tab 0 ratings
1 star 2 stars 3 stars 4 stars 5 stars
comments

Run From Reality Tab

                            RUN FROM REALITY
                             '''''''''''''
                                OXYMORON
                         tabbed by: matt goolsby

"3-3" palm mute
* emphasis/hold
                        VV intro VV
e|------------------------------------------------------------------------|
b|------------------------------------------------------------------------|
g|------------------------------------------------------------------------|
d|-5-----------------------0-1/3-3-3--3-33--------5-----------------------|
a|-3-"3-3-3-3-3-3-3-3-3-3"-------1-1--1-11-6-5-5--3-"3-3-3-3-3-3-3-3-3-3"-|
E|-----------------------------------------4-3-3--------------------------|

|---------------------------------------------------------------------|
|---------------------------------------------------------------------|
|---------------------------------------------------------------------|
|-0-3/5-5-5--5-5-5-3-3--5-----------------------0-1/3-3-3--3-33-------|
|-------3-3--3-3-3-1-1--3-"3-3-3-3-3-3-3-3-3-3"-------1-1--1-11-6-5-5-|
|---------------------------------------------------------------4-3-3-|

|----------------------------------------------------------------------|
|----------------------------------------------------------------------|
|----------------------------------------------------------------------| end
|-5-----------------------0-3/5-5*-5-5-555-3-3--5-3-3--5-3-3--3-333333-|  of
|-3-"3-3-3-3-3-3-3-3-3-3"----------3-3-333-1-1--3-1-1--3-1-1--1-111111-| intro
|----------------------------------------------------------------------|

|---------------------------------------------|
|---------------------------------------------|
|---------------------------------------------|  first verse. x2
|-5---------5---------------8-----------------| palm mute only first 2 times.
|-3-"3-3-3"-3-6---------6-8-6-8-8-8-8-66-555--|
|-------------4-"4-4-4"-4-6---6-6-------------|
 suddenly...  used to be...
|-------------------------------------------------------------------|
|-------------------------------------------------------------------|
|-------------------------------------------------------------------| second
|-5-555-5-----------8----------------5-555-5------------------------| verse
|-3-333-3-6-666-6-8-6-8-8-8-8-66-555-3-333-3-6-666-6-8-888888-6-5-5-|
|---------4-444-4-6---6-6--------------------4-444-4-6-666666-4-3-3-|
                               VV pre-chorus VV
|----------------           |--------------------------------------------|
|----------------           |--------------------------------------------|
|---------------- end       |--------------------------------------------|
|-5-555555-5-3-3- second    |-8-88888-5----------------------------------|
|-3-333333-3-1-1- verse     |-6-66666-3-"3-3-3-3-3-3"-6-66666-88-88-66-5-|
|----------------           |-------------------------4-44444-66---------|

|--------------------------------------------|
|--------------------------------------------|
|--------------------------------------------| end pre-chorus.
|-5-55555-----------------8-88888------------|
|-3-33333-6---------------6-66666-8-88-8888--|
|---------4-"4-4-4-4-4-4"---------6-66-6666--|
                                               VV chorus VV
|-------------------------------------------------------------------------|
|-------------------------------------------------------------------------|
|-------------------------------------------------------------------------|
|-5-55555-8-88-8888-------------------5-55555-8-88-8888-------------------|
|-3-33333-6-66-6666-6-66666-8-88-8888-3-33333-6-66-6666-6-66666-8-88-8888-|
|-------------------4-44444-6-66-6666-------------------4-44444-6-66-6666-|
  i tried...flee    but you cant...   i tried...flee    no use in dialing...
|------------------------------------------------------|
|------------------------------------------------------|
|------------------------------------------------------|
|-5-55555-8-88-8888-------------------5-55555-8-88-888-|
|-3-33333-6-66-6666-6-66666-8-88-8888-3-33333-6-66-666-|
|-------------------4-44444-6-66-6666------------------|
[ Tab from: http://www.guitartabs.cc/tabs/o/oxymoron/run_from_reality_tab.html ]
|---------------------------------------------------------|
|---------------------------------------------3/4-4/6-6-4-|
|---------------------------------------------------------|
|---------------------------------------------------------|  end chorus.
|-6---------------------------6-8-------------------------|
|-4-"4-4-4-4-4-4-4-4-4-4-4-4"-4-6-"6-6-6-6-6"-------------|

|----------------------------------------------|
|----------------------------------------------|  pre- first verse
|----------------------------------------------|  repeat 2 times, then start
|-5---------5---------------8------------------| first verse.
|-3-"3-3-3"-3-6---------6-8-6-8-8-8-8-66-555---|
|-------------4-"4-4-4"-4-6---6-6--------------|

|----------------------------------------------------------------|
|----------------------------------------------------------------|
|----------------------------------------------------------------| verse 2b
|-5-555-5-----------8----------------5-555-5---------8-8---------|
|-3-333-3-6-666-6-8-6-8-8-8-8-66-555-3-333-3-6-666-6-6-6---8-8---|
|---------4-444-4-6---6-6--------------------4-444-4-------6-6---|
                    VV second chorus VV
|-------------------------------------------------------------------------|
|-------------------------------------------------------------------------|
|-------------------------------------------------------------------------|
|-5-55555-8-88-8888-------------------5-55555-8-88-8888-------------------|
|-3-33333-6-66-6666-6-66666-8-88-8888-3-33333-6-66-6666-6-66666-8-88-8888-|
|-------------------4-44444-6-66-6666-------------------4-44444-6-66-6666-|
  i tried...flee    but you cant...   i tried...flee    no use in dialing...
|-------------------------------------------------------|
|-------------------------------------------------------|
|-------------------------------------------------------|
|-5-55555-8-88-8888-------------------5-55555-8-88-8888-|
|-3-33333-6-66-6666-6-66666-8-88-8888-3-33333-6-66-6666-|
|-------------------4-44444-6-66-6666-------------------|

|----------------|
|----------------|
|----------------|   end second chorus
|----------------|
|-6-666666-6-5-5-|
|-4-444444-4-3-3-|

|-------6---------------------------------8/6---8--6/8-11-8-6---|
|-8/6------8/6---6/8--------------------------8---------------8-|
|-----8--------8-----5--8-7-5-5--8-8-77-5-----------------------|
|---------------------------------------------------------------|  solo.
|---------------------------------------------------------------|
|---------------------------------------------------------------|

|------------------------------------------------------------------|
|-6-6-88-99-1010-11------------------------------------------------|
|---------------------12-1212-121212-12-1212-121212-12-1212-121212-|
|---------------------10-1010-101010-10-1010-101010-10-1010-101010-|
|------------------------------------------------------------------|
|------------------------------------------------------------------|

|-------------------------------------------|
|----------------------------6/8*-----------|
|-12-1212-121212-8-7-6-6/8-8--------------5-|
|-10-1010-101010----------------------88----| end solo, back to intro
|-------------------------------------------|
|-------------------------------------------|
              VV end chorus VV
|-------------------------------------------------------------------------|
|-------------------------------------------------------------------------|
|-------------------------------------------------------------------------|
|-5-55555-----------8-88888-----------5-55555-----------8-88888-----------|
|-3-33333-6-66-6666-6-66666-8-88-8888-3-33333-6-66-6666-6-66666-8-88-8888-|
|---------4-44-4444---------6-66-6666---------4-44-4444---------6-66-6666-|

|------------------------------------------------------------------|
|------------------------------------------------------------------|
|------------------------------------------------------------------|
|-5-55555-----------8-88888----------------------------------------|
|-3-33333-6-66-6666-6-66666-8-88-888-6---------------------------6-|
|---------4-44-4444---------6-66-666-4-"4-4-4-4-4-4-4-4-4-4-4-4"-4-|

|---------------------|
|---------------------|
|---------------------|
|---------------------|
|-8-----------8-6-5-5-|
|-6-"6-6-6-6"-6-4-3-3-|

SONG ORDER
''''''''''''
intro
first verse x2
second verse x2
pre-chorus
chorus
pre-first verse x2
first verse x2
verse 2b
pre-chorus
second chorus
solo
intro
first verse
second verse
pre-chorus
end chorus


                    enjoy, this is one of my favorite songs! i think it could be cool a 
faster. it kicks ass either way though, and its a good song to work on palm muting...
Comments