Oxymoron - Insane Chords & Tabs

 

Insane Chords & Tabs

Oxymoron Chords & Tabs

Version: 1 Type: Tab 0 ratings
1 star 2 stars 3 stars 4 stars 5 stars
comments

Insane Tab

   
                               INSANE
                            '''''''''''''
                              OXYMORON
                        tabbed by: matt goolsby

" " palm mute
/ "hammer on" (dont pick second note, just hit it and let
the resonation from the first pick carry to the second note smoothly.)
b  bend
\ fall/slide down

e|------------------------------------------------------------------|
b|------------------------------------------------------------------|
g|-4--------------------------------9/7-9/7-9/7-9/7-9/7-9/7-9/7-9/7-|
d|-2-2-----------------------0-0-2----------------------------------|
a|---0-00-00-3-33-33------------------------------------------------|
E|-------------------1-1-1-1----------------------------------------|
      |........bass part..........|
|----------------------------|
|----------------------------|
|-9/7-9/7-9/7-9/7-9/7-9/7-9b-| intro w/ bass part
|----------------------------|
|----------------------------|
|----------------------------|

|-----------------------------------|
|-----------------------------------|
|---------------------------------4-| verse
|----------5-55-555----------7-77-2-|
|-7-77-777-3-33-333-3-33-333-5-55---|
|-5-55-555----------1-11-111--------|
[ Tab from: http://www.guitartabs.cc/tabs/o/oxymoron/insane_tab.html ]
|-------------------------------------------------------------|
|-------------------------------------------------------------|
|-------------------------------------------------------------| chorus
|-2------2------2------2------5------4------7--------5-2------|
|-0-"00"-0-"00"-0-"00"-0-"00"-3-"33"-2-"22"-5-"5555"-3-0-"00"-|
|-------------------------------------------------------------|
make me sick, drive me insane, go ahead take my mind away
|-----------------------------------------------|
|-----------------------------------------------|
|-----------------------------------------------|
|-2------2------2------5------4------2--------2-|
|-0-"00"-0-"00"-0-"00"-3-"33"-2-"22"-0-"0000"-0-|
|-----------------------------------------------|
i'm not scared, of....what the fuck is wrong with you!
|-------------------------------------------------------------|
|-------------------------------------------------------------|
|-------------------------------------------------------------|
|-2------2------2------2------5------4------7--------5-2------|
|-0-"00"-0-"00"-0-"00"-0-"00"-3-"33"-2-"22"-5-"5555"-3-0-"00"-|
|-------------------------------------------------------------|

|--------------------------------------------------------------|
|--------------------------------------------------------------|
|-------------------------------------------------9-7-9---9/10-|
|-2------2------2------5------4------2------2-2-7-------7------|
|-0-"00"-0-"00"-0-"00"-3-"33"-2-"22"-0-"00"-0-0----------------|
|--------------------------------------------------------------|

|-------------------------------------------------------------------|
|-------------------------------------------------------------------|
|-9/10/9---9-7-9-12/9-7/9*----9-7-9---9/10-9/10/9---9-7-9-12/9-7/9--|
|--------7------------------7-------7-------------7-----------------|
|-------------------------------------------------------------------| end
|-------------------------------------------------------------------| chorus

|-------------------------------------------------------------|
|-------------------------------------------------------------|
|-9/7-9/7-9/7-9/7-9/7-9/7-9/7-9/7-9/7-9/7-9/7-9/7-9/7-9/7-9b--| solo
|-------------------------------------------------------------|
|-------------------------------------------------------------|
|-------------------------------------------------------------|

|-----------------------------------------------------------------|
|-------------------------------------------------------10-10-10\-|
|-9/7------9/7------9/7------9/7------9/7------9/7----------------| end
|-----10/7-----10/7-----10/7-----10/7-----10/7-----10/7-----------| solo
|-----------------------------------------------------------------|
|-----------------------------------------------------------------|


   these are the only parts i remember, and i dont remember the order
of the song. im kinda doin this from memory, so its as good as it gets
for now. enjoy
Comments